Cifras Web
Igor & Leon

Tem Nada a Ver

Igor & Leon

8 acessos

Intro: 

e|------------------------------------9--7--5----------
B|-------------9-10--12--9---13-9----10--9--7----------
G|------8-9-11------------------------------------7/13-
D|---11------------------------------------------------



e|-12----12------------------------------------------12---11---9---7----
B|--------------------9---------------9-------12------------------------
G|-----13---------9h11---11-------9h11--11b9-------13----11---9---8-----
D|------------9h11------------9h11--------------------------------------


acompanhamento do solo: E G#7 A E F#7  B7  

          E 
Alguém me disse que você falou 
         B9 
Que acha graça e tem pena de mim 
           A                                 B9 
Que não me ama que o nosso caso já chegou ao fim 
       E 
Ao telefone não atende mais 
          B9 
Que pra você agora tanto faz 
        A 
Se é verdade que você não quer 
         B9 
Responda se puder 
           E                    G#7 
Quem é que liga no meio da noite 
               C#m 
Diz que está sozinha 
                    E7                    A 
Quem é que nos meus braços fala que é só minha 
              B7                 E  B7 
E chora de emoção na hora do prazer 
         E                      G#7 
Porque será que você não assume 
                C#m 
Que eu sou seu homem 
               E7                   A 
Porque o tempo todo fala no meu nome 
               B7                   E  E7 
Confessa que você não sabe me esquecer 
               A 
Tem nada a ver 
              B7                 E 
Você é quem está fugindo da verdade 
               E7              A 
Parece que tem medo da felicidade 
                 B7                    E  E7 
Você diz que não,   teu corpo diz que sim 
               A               B7 
Tem nada a ver,  a boca que me beija 
      G#7        C#m 
A mão que me apedreja 
                  E7                A 
Se deita em minha cama depois me difama 
                   B7                    E  B7
Diz que não me quer   mas vive atrás de mim

- Repete tudo desde a introdução (inclusive o solo).

- No final ao invés de fazer o último B7 é feito um Am e depois E.

TOP cifras de Igor & Leon

  1. Convite de Casamento
  2. Bala de Prata
  3. Tem Que Ser Você
  4. Do Brasil a Argentina
  5. Tem Nada a Ver
  6. Calma,respira
  7. Meu Segredo
  8. Viola Esta Chorando
  9. Borboletas
  10. Foi Covardia

Pela Web