Cifras Web
Inmigrantes

Preciados

Inmigrantes

5 acessos

Intro:

     C    Em  Am   Dm         G
E|-8---8-7---5-----------------------------
B|---8------------8-6-5-3------------------
G|------------------------5-0-0-2-4-0------
D|------------------------------------3-0--
A|-----------------------------------------
E|-----------------------------------------


C      Em  Am
Te anestesias
      Dm
te empiezas
        G
a envolver

C      Em Am
Te ruborizas
     Dm          G    Gm
te duermes otra veee-eez

Dm        A7
Desespero por saber
 Dm              A#add9
si algo nos va a separar
 F
envueltos en un papel
     C
sacrifico ropas

y a las seis
      Gm
haces otro intento

por perder

    A#add9   C
Todo lo especial
    Dm
en vos
A#add9 C    G
es tan esencial

C      Em  Am
Me reconoces
      Dm
me inventás
        G    Gm
sin quereeee-er

Dm        A7
Desespero por saber
 Dm              A#add9
si algo nos va a separar
 F
envueltos en un papel
     C
sacrifico ropas

y a las seis
       Gm
haces otro intento

por perder

    A#add9   C
Todo lo especial
   Dm
en vos
A#add9 C    Dm
es tan esencial
A#add9   C   Dm
sos tan demencial
A#add9    C   F
que me haces reir.

   F             Am        Dm      Gm
E|-------------------------------------------------------
B|-----1-3-------------1-3-------------------------------
G|-1-2-----1-2-----1-2-----1-2-----0-2-0-------0-2-0-----
D|-------------2-3-------------2-3-------3-0-3-------3-0-
A|-------------------------------------------------------
E|-------------------------------------------------------


      C
E|--------------------------------------
B|---1-2-3-4-5-4-3-2-1-2-3-4-5-4-1------
G|--------------------------------------
D|--------------------------------------
A|--------------------------------------
E|--------------------------------------


Dm        A7
Desespero por saber
 Dm              A#add9
si algo nos va a separar
 F
envueltos en un papel
     C
sacrifico ropas

y a las seis
       Gm
haces otro intento

por perder

    A#add9   C
Todo lo especial
   Dm
en vos
A#add9 C    Dm
es tan esencial
A#add9   C   Dm
sos tan demencial
A#add9    C   F
que me haces reir.

( C  Em  Am  Dm  G )

TOP cifras de Inmigrantes

  1. Graffiti
  2. Babilonia
  3. Golpe de Suerte
  4. El Alma Se Llenó
  5. Nuevo Trip
  6. Una Chica de Ayer
  7. Preciados

Pela Web