Cifras Web
Insade

O Tempo

Insade

5 acessos

Intro : E A B  C#m  B

E
Olho pro passado (e vejo voce)
A9
memorias tão lindas (que não consigo esquecer)
E
Olho nossas fotos (e não consigo entender)
A
por que tudo acabou (se eu sempre te amei)


C#m           B                    A9
O destino resoulveu tirar voce de mim   ---Riff---

C#m                 B                           A
Meu coração não compreende porque tudo teve um fim

Refrão

E        B               A9
O que passou não volta mais
E        B                         A9
erros cometidos que ninguem pode mudar
C#m       B                               F#m
Sem me preocupar com o que os outros vão dizer
                      A9                   B
Vou construir o meu futuro e tentar te esquecer.

(Repete a intro)

Segunda parte :

E
Vou abrir os olhos (e viver o meu presente)
A9
Esquecer o meu passado ( e tentar seguir em frente)
E
Não me preocupo mais (em correr atras)
A9
O que é pra ser meu (o tempo me traz)


C#m           B                    A9
O destino resoulveu tirar voce de mim   ---Riff---


C#m                 B                           A
Meu coração não compreende porque tudo teve um fim


(Repete o refrão)


Solo : E B A9 Cm B  A9



E|-----------------------------------12-11--7h9-7-7-0--7-5--4--5-4----|
B|--------------------------------------------------------------------|
G|--------------------------------------------------------------------|
D|--14-13-9h11-9-9--2--9-7-6-7-6--------------------------------------|
A|--------------------------------------------------------------------|
E|--------------------------------------------------------------------|




E|---------------------------------------------------------------------|
B|-17--17--17--17--16--16--16--16--14--14--14--14--14--14--16--16---17-|
G|---16--16--16--16--16--16--16--16--16--16--16--16--16--16--16--16----|
D|---------------------------------------------------------------------|
A|---------------------------------------------------------------------|
E|---------------------------------------------------------------------|


E        B               A9
O que passou não volta mais
E        B                         A9
erros cometidos que ninguem pode mudar
C#m       B                               F#m
Sem me preocupar com o que os outros vão dizer
                      A9                   B
Vou construir o meu futuro e tentar te esquecer.

TOP cifras de Insade

  1. Sonhos
  2. Resposta
  3. O Tempo

Pela Web