Cifras Web
Insade

Resposta

Insade

6 acessos

Base: Db5 A5 Ab5

Riff :

E|--------------------------
B|--------------------------
G|-6-6-6-6-6-8-9-11---------
D|--------------------------
A|-4-4-4-4-4-6-7-9-- A5 Ab5-
E|--------------------------


Db5      A5 Ab5
Não pare agora
Db5      A5 Ab5 (abafado)
não deixe de tentar
Db5                 A5 Ab5
São nos momentos mais difíceis
Db5            A5 Ab5
que aprendemos a lutar

Riff

E|-------------------
B|-------------------
G|-6-6-6-6-6-8-9-11--
D|-------------------
A|-4-4-4-4-4-6-7-9---
E|-------------------


Db5      A5 Ab5
Poucos reconhecem (o nosso valor)
Db5           A5 Ab5 (abafado)
E muitos querem nos julgar
Db5             A5 Ab5
só pensam em nos destruir
Db5      A5 Ab5
custe o que custar

Refrão

A5           B     C#m
Não deixe a vida passar
A5           B     C#m
E nunca pare de sonhar
A5           B     C#m
Pois todos que falam de ti
A5           B     C#m
Queriam estar no seu lugar

Riff :

E|------------------
B|------------------
G|-6-6-6-6-6-8-9-11-
D|------------------
A|-4-4-4-4-4-6-7-9--
E|------------------


Db5          A5 Ab5
Vou atrás do que é meu
Db5           A5 Ab5 (abafado)
E ninguém pode me parar
Db5                    A5 Ab5
E quando eu não souber o caminho
Db5      A5 Ab5
Minha fé me guiará

Solo :


E|-------------------------------------9-9-9-9-9-9-
B|--------------------------------12-9-9-9-9-9-9-9-
G|-11^-11^-8b9-8~-8b9-8-6-4-6-8-9------------------
D|-------------------------------------------------
A|-------------------------------------------------
E|-------------------------------------------------



E|- 9-12-9--9-12-9--9-12-9--9-12-9-------------------

B|-9------12------12------12-------19^-19^-19^-17-14~
G|---------------------------------------------------
D|---------------------------------------------------
A|---------------------------------------------------
E|---------------------------------------------------


Base de bateria e baixo

Hey hey !
Hey hey !
Hey hey !
Hey hey !


A5           B     C#m
Não deixe a vida passar
A5           B     C#m
E nunca pare de sonhar
A5           B     C#m
Pois todos que falam de ti
A5           B     C#m
Queriam estar no seu lugar

Riff
No seu lugar
Riff
No seu lugar

Riff
E|------------------
B|------------------
G|-6-6-6-6-6-8-9-11-
D|------------------
A|-4-4-4-4-4-6-7-9--
E|------------------

TOP cifras de Insade

  1. Sonhos
  2. Resposta
  3. O Tempo

Pela Web