Cifras Web
Iron Maiden

Afraid to Shoot Strangers

Iron Maiden

16 acessos

off the Album, Fear of the Dark
from Hal Leonard Publishing

intro (clean sound)


-------------------------------
------7-7h9--7h9p7-------------
-7h9---------------9-8-6h8p6---
-----------------------------9-
-------------------------------
-------------------------------



------------------------------------------
-10h12-10-8h10-7--------------------------
-----------------9-7-6-----6---6-6-6p4----
-----------------------9-7------------6h9-
------------------------------------------
------------------------------------------



-------------------------------
------7-7h9--7h9p7-------------
-7h9---------------9-8-6h8p6---
-----------------------------9-
-------------------------------
-------------------------------



--------------------------------------------------
-10h12-10-8h10-7----------------------------------
-----------------9-7-6-----6---6-6-6p4------------
-----------------------9-7------------6h9---6-9-6-
--------------------------------------------------
--------------------------------------------------


clean rhythym (during above part)


----------------------------------------------------------
----------------------------------------------------------
-------------------------------------------6---6----------
-----2---2-----(4X)-----5---5-----(4X)---6---6---6---(4X)-
---2---2---2----------5---5---5--------4-----------4------
-0-----------0------3-----------3-------------------------

                                                 ending

-----------------------------------------------------
-----------------------------------------------------
-----4---4-------------------------------------------
---4---4---4---(4X)------------6---6-------6---6-----
-2-----------2---------------6---6---6---6---6---6---
---------------------------4-----------4-----------4-


Lying awake at night... (section 1)


-----------------------------------------------------------
-----------------------------------------------------------
-------------------------6---6--------------7---7----------
-----2---2-----(4X)----6---6---6---(4X)---7---7---7---(4X)-
---2---2---2---------4-----------4------5-----------5------
-0-----------0---------------------------------------------



--------------------------------------------------
--------------------------------------------------
-----4---4----------------------------------------
---4---4---4---(4X)-------------------------------
-2-----------2------------------------------------
--------------------------------------------------


When it comes to the time... (section 2)


---------------------------------------------------------
---------------------------------------------------------
-----5---5-------6---6-------3---3-------5---5------(4X)-
---5---5---5---6---6---6---3---3---3---5---5---5---------
-3-----------4-----------1-----------3-----------3-------
---------------------------------------------------------


repeat Section 1
repeat Section 2

Harmony 1


-----------------------------9------------------------------------
-------9-10p9----10----10-12---12-10-12---9-10-12---9-10-12-10-9--
----11--------11----11------------------9---------9---------------
-11---------------------------------------------------------------
------------------------------------------------------------------
------------------------------------------------------------------



--------------------------------------------------
---------9----------------------------------------
-11-9-11---11-------------------------------------
--------------------------------------------------
--------------------------------------------------
--------------------------------------------------



----------------------------------------------------------------------
-10-10-10-10-10--12-10-9-10--9--9-9-9-9-------------------9-----------
---------------------------11----------9-11-11-11-11-9-11---11p9-11---
----------------------------------------------------------------------
----------------------------------------------------------------------
----------------------------------------------------------------------


Fast rhythm (during solo also)
listen to song to get rhythm


--------------------------------------------------
--------------------------------------------------
-9-----------7-7---5-5----------------------------
-9--(10X)----7-7---5-5----------------------------
-7-----------5-5---3-3----------------------------
--------------------------------------------------



--------------------------------------------------
--------------------------------------------------
-9-----------7-7---5-5----------------------------
-9--(10X)----7-7---5-5----------------------------
-7-----------5-5---3-3----------------------------
--------------------------------------------------



--------------------------------------------------
--------------------------------------------------
-7------------------------------------------------
-7--(10X)--7-7---9-9------------------------------
-5---------7-7---9-9------------------------------
-----------5-5---7-7------------------------------



--------------------------------------------------
--------------------------------------------------
-9-----------7-7---5-5----------------------------
-9--(10X)----7-7---5-5----------------------------
-7-----------5-5---3-3----------------------------
--------------------------------------------------


interlude


----------------------------------------10^-------
-8-10-10^-10-8---8-10-10^-8-7-10^-8-7-8-----------
--------------------------------------------------
--------------------------------------------------
--------------------------------------------------
--------------------------------------------------



----------------------------------------10^-------
-8-10-10^-10-8---8-10-10^-8-7-10^-8-7-8-----------
--------------------------------------------------
--------------------------------------------------
--------------------------------------------------
--------------------------------------------------



-8-10-10^-10-8--8-10-10^-8-7-10^-8-7-8---15^--15^-
--------------------------------------------------
--------------------------------------------------
--------------------------------------------------
--------------------------------------------------
--------------------------------------------------



----------------------------------------10^-------
-8-10-10^-10-8---8-10-10^-8-7-10^-8-7-8-----------
--------------------------------------------------
--------------------------------------------------
--------------------------------------------------
--------------------------------------------------


Rhythm 2  Afraid... Afraid to shoot strangers... Afraid...


--------------------------------------------------------
--------------------------------------------------------
---------------9-7--------------9-7--------------9--7---
-7--9----7--9--7-5--7--9---7-9--7-5--5--7--5--7--7--5---
-5--7----5--7-------5--7---5-7-------3--5--3--5---------
--------------------------------------------------------


repeat fast rhythm

Second harmony interlude


------------9--10-9----------------------------------------------------
----9-10-12---------12-10-9-10---12--10-9--------------10-10-10-10-9---
-11---------------------------------------9---9----------------------9-
-------------------------------------------------11-12-----------------
-----------------------------------------------------------------------
-----------------------------------------------------------------------


last time play slowly
----------------------------------------------------------------------
-10-10-10-10-10--12-10-9-10--9--9-9-9-9-------------------9-----------
---------------------------11----------9-11-11-11-11-9-11---11p9-11---
----------------------------------------------------------------------
----------------------------------------------------------------------
----------------------------------------------------------------------

TOP cifras de Iron Maiden

  1. Remember Tomorrow
  2. Flight of Icarus
  3. Hallowed Be Thy Name
  4. Invaders
  5. Children of the Damned
  6. Iron Maiden
  7. Sun and Steel
  8. The Ides Of March
  9. The Evil That Men Do
  10. Dejavu

Pela Web