Cifras Web
Iron Maiden

Fortunes of War

Iron Maiden

19 acessos

  main riff

e:---------------------------------------------------------------------------|
B:---------------------------------------------------------------------------|
G:------7-----7-----7------------12-----12-----12----------7---7---7---------|
D:---7-----7-----7-----7------12-----12-----12----12-----7---7---7---7-------|
A:9-----------------------10---------------------------5---------------------|
E:---------------------------------------------------------------------------|







e:---------------------------------------------------------------------------|
B:---------------------------------------------------------------------------|
G:----4---4---4---------5---5---5----------5---5---5-------------------------|
D:--4---4---4---4-----5---5---5---5------5---5---5---5-----------------------|
A:2-----------------3------------------7-------------------------------------|
E:---------------------------------------------------------------------------|





                          end of mainriff riff2        end 1.&3.     end 2.

e:---------------------------------------------------------------------------|
B:---------------------------------------------------------------------------|
G:-----7---7---7---------7---7---7-----------------------------------9-----9-|
D:---7---7---7---7-----7---7---7---7------9---9---9----12----12---------7----|
A:-9-----------------9----------------------7---7---7-----10-----------------|
E:---------------------------------------------------------------------------|





    end.4.                                riff2.2nd guitar   end 1.&3

e:---------------------------------------------------------------------------|
B:---------------------------------------------------------------------------|
G:---------------------------------------------------------------------------|
D:--5---5-----7---------------------------9-9-9--9---9--9-9---12-12-12-------|
A:----3-----5---5-------------------------7-7-7--7---7--7-7---10-10-10-------|
E:---------------------------------------------------------------------------|





     end.2.   end.4.                       riff2.1.  first 3 times

e:---------------------------------------------------------------------------|
B:---------------------------------------------------------------------------|
G:---9-9-9---------------------------------14-12-----------------------------|
D:---7-7-7-----5-5-5--7-7-7----------------------14-12----12-12-14-12-12-14--|
A:-------------3-3-3--5-5-5----------------------------14--------------------|
E:---------------------------------------------------------------------------|



                                          

     on 4.th.time                                 RiffA

e:---------------------------------------------------------------------------|
B:---------------------------------------------------------------------------|
G:----14--12--------------------------------16-14-16-12--16-14-16-12---16-14-|
D:-----------14--12-----12--12--10-------------------------------------------|
A:-------------------14------------------------------------------------------|
E:---------------------------------------------------------------------------|





      

e:---------------------------------------------------------------------------|
B:---------------------------------------------------------------------------|
G:16---17/16/17--14-12--14-12------------------------------------------------|
D:-------------------------------16--12--14----------------------------------|
A:---------------------------------------------------------------------------|
E:---------------------------------------------------------------------------|



        
Rhytm under solo:        
        
E5   G5   C5   D5  A5  C5   D5


Chorus:

E5   G5  C5  A5  C5   D5


Verse 3 & 4


E5  C5  D5  

E5  C5  A5

E5  C5  D5

E5  B5  C5  A5


Rhytm under riffA:

E5  C5  A5  C5  D5

TOP cifras de Iron Maiden

  1. Remember Tomorrow
  2. Flight of Icarus
  3. Hallowed Be Thy Name
  4. Invaders
  5. Children of the Damned
  6. Iron Maiden
  7. Sun and Steel
  8. The Ides Of March
  9. The Evil That Men Do
  10. Dejavu

Pela Web