Cifras Web
Iron Maiden

No More Lies

Iron Maiden

21 acessos

    Intro...(twice) Clean Sound
    Listen to the Song before U start.


    E|-------------------------------------------------------------------------
    B|-------------------------------------------------------------------------
    G|------9--7--9~---7--9--7--9--9~--7--9--7--9--9~-------------------------- 
    D|--7----------------------------------------------------------------------
    A|------------------------------------------------------------------------- 
    E|-------------------------------------------------------------------------

    E|------------------------------------------------------------------------- 
    B|-------------8-----------------------------------------------------------
    G|--7--9--10------10--9~--7--9--7~---5--5~--4--5--4--5--5~----------------- 
    D|-------------------------------------------------------------------------
    A|------------------------------------------------------------------------- 
    E|-------------------------------------------------------------------------

    E|------------------------------------------------------------------------- 
    B|-------------------------------------------------------------------------
    G|--4--5--4-----------------------------7~--------------------------------- 
    D|--------------7--7--5--7--5--7--5----------------------------------------
    A|------------------------------------------------------------------------- 
    E|-------------------------------------------------------------------------

    E|------------------------------------------------------------------------- 
    B|-------------------------------------------------------------------------
    G|------9--9--9--9--7--9~------9--9--9--9--10--9--7--9~-------------------- 
    D|--7----------------------7-----------------------------------------------
    A|------------------------------------------------------------------------- 
    E|-------------------------------------------------------------------------

    E|------------------------------------------------------------------------- 
    B|-------12--13-------12--13--------12--13--15--13--12--13--12-------------
    G|--14-----------14-----------14--------------------------------12--------- 
    D|-------------------------------------------------------------------------
    A|------------------------------------------------------------------------- 
    E|-------------------------------------------------------------------------

    Vocal Begins-listen to the song to get this part
    E|------------------------------------------------------------------------- 
    B|-------------------------------------------------------------------------
    G|-----9----9----9-----9-----9----9----9----9------------------------------ 
    D|--7----7----7-----7----7-----7----7----7---------------------------------
    A|------------------------------------------------------------------------- 
    E|-------------------------------------------------------------------------

    E|------------------------------------------------------------------------- 
    B|-------------------------------------------------------------------------
    G|-----5----5----5----5----5----5----5-----5------------------------------- 
    D|--3----3----3----3----3----3----3-----3----------------------------------
    A|------------------------------------------------------------------------- 
    E|-------------------------------------------------------------------------

    E|------------------------------------------------------------------------- 
    B|-------------------------------------------------------------------------
    G|------2-----2----2----2----2-----2----2-----2---------------------------- 
    D|--0------0----0----0----0-----0----0-----0-------------------------------
    A|------------------------------------------------------------------------- 
    E|-------------------------------------------------------------------------

    E|-----------------------------------------------------------------0------- 
    B|-----------------------------------------------------------0-------------
    G|-----7----7----7----7----7----7----7----7----------4--5------------------ 
    D|--5----5----5----5----5----5----5----5-----------------------------------
    A|------------------------------------------------------------------------- 
    E|-------------------------------------------------------------------------
    
     1:51-  A Hurried Time, no disgrase...(repeat until,''TILL THEN'')
    E|------------------------------------------------------------------------- 
    B|-------------------------------------------------------------------------
    G|------------------------------------------------------------------------- 
    D|----2----2----2------7----7----7--------5----5----5----------------------
    A|-0----0----0----0--5----5----5----5--3-----3----3----3-----5----5----5----5--- 
    E|--------------------------------------------------------3----3----3----3----3-

    No More Lies
    E|------------------------------------------------------------------------- 
    B|-------------------------------------------------------------------------
    G|-2-2-2-2--2-2-2-2-------------------------------------------------------- 
    D|-2-2-2-2--2-2-2-2--------------------------------------7-7-7-7--7-7-7-7--
    A|-0-0-0-0--0-0-0-0--3-3-3-3--3-3-3-3--5-5-5-5--5-5-5-5--5-5-5-5--5-5-5-5-- 
    E|-------------------1-1-1-1--1-1-1-1--3-3-3-3--3-3-3-3--------------------

     They`re All Seating At my table...
    E|------------------------------------------------------------------------- 
    B|-------------------------------------------------------------------------
    G|--------2--------2--------2-----2---------------------------------------- 
    D|--------2--------2--------2-----2-------3--------3--------3--------3-----
    A|--0--0--0--0--0--0--0--0--0--0--0-------3--------3--------3--------3----- 
    E|-----------------------------------1-1--1--1--1--1--1--1--1--1--1--1-----

    E|------------------------------------------------------------------------- 
    B|-------------------------------------------------------------------------
    G|--------7--------7--------7--------7------------------------------------- 
    D|--------7--------7--------7--------7--------5--------5--------5--------5-
    A|--5--5--5--5--5--5--5--5--5--5--5--5--------5--------5--------5--------5- 
    E|--------------------------------------3--3--3--3--3--3--3--3--3--3--3--3-

    The Clock is fast, the hour is near...
    E|------------------------------------------------------------------------- 
    B|-------------------------------------------------------------------------
    G|---2--------2---------7--------7---------5--------5---------------------- 
    D|---2--------2---------7--------7---------5--------5-------5--------5-----
    A|---0--0--0--0--0--0---5--5--5--5--5--5---3--3--3--3--3--3-5--------5----- 
    E|----------------------------------------------------------3--3--3--3--3--3-

    REPEAT THE ''NO MORE LIES...'' PART.
    REPEAT THE ''THEY`RE ALL SITTING...'' PART, WHILE NO MORE LIES IS STILL GOING.

    W/ Distortion.
    E|-------------------------------------------------------------------------- 
    B|--------------------------------------------------------------------------
    G|------9--7--9~---7--9--7--9--9~--7--9--7--9--9~--------------------------- 
    D|--7-----------------------------------------------------------------------
    A|-------------------------------------------------------------------------- 
    E|--------------------------------------------------------------------------

    E|-------------------------------------------------------------------------- 
    B|-------------8------------------------------------------------------------
    G|--7--9--10------10--9~--7--9--7~---5--5~--4--5--4--5--5~------------------ 
    D|--------------------------------------------------------------------------
    A|-------------------------------------------------------------------------- 
    E|--------------------------------------------------------------------------

    E|-------------------------------------------------------------------------- 
    B|--------------------------------------------------------------------------
    G|--4--5--4-----------------------------7~---------------------------------- 
    D|--------------7--7--5--7--5--7--5-----------------------------------------
    A|-------------------------------------------------------------------------- 
    E|--------------------------------------------------------------------------

    E|-------------------------------------------------------------------------- 
    B|--------------------------------------------------------------------------
    G|------9--9--9--9--7--9~------9--9--9--9--10--9--7--9~--------------------- 
    D|--7----------------------7------------------------------------------------
    A|-------------------------------------------------------------------------- 
    E|--------------------------------------------------------------------------

    E|-------------------------------------------------------------------------- 
    B|------12--13----12--13-------12--13--15--13--12--13--12-------------------
    G|--14---------14---------14--------------------------------12--------------  
    D|--------------------------------------------------------------------------
    A|-------------------------------------------------------------------------- 
    E|--------------------------------------------------------------------------

    BACK GROUND FOR SOLO: Am   Fm   Cm
                                                Am   Fm   Gm
    (not 100% sure About this part).

  
    E|--------------------------------------------------------------------------- 
    B|---------------------------------------------------------------------------
    G|------9--7--9~---7--9--7--9--9~--7--9--7--9--9~---------------------------- 
    D|--7------------------------------------------------------------------------
    A|--------------------------------------------------------------------------- 
    E|---------------------------------------------------------------------------

    E|--------------------------------------------------------------------------- 
    B|------------8--------------------------------------------------------------
    G|--7--9--10------10--9~--7--9--7~---5--5~--4--5--4--5--5~------------------- 
    D|---------------------------------------------------------------------------
    A|--------------------------------------------------------------------------- 
    E|---------------------------------------------------------------------------

    E|--------------------------------------------------------------------------- 
    B|---------------------------------------------------------------------------
    G|--4--5--4-----------------------------7~----------------------------------- 
    D|--------------7--7--5--7--5--7--5------------------------------------------
    A|--------------------------------------------------------------------------- 
    E|---------------------------------------------------------------------------
                                               slow down here
    E|--------------------------------------------------------------------------- 
    B|---------------------------------------------------------12~--13~----------
    G|------9--9--9--9--7--9~------9--9--9--9--10--9--7--9~---------------------- 
    D|--7----------------------7-------------------------------------------------
    A|--------------------------------------------------------------------------- 
    E|---------------------------------------------------------------------------

TOP cifras de Iron Maiden

  1. Remember Tomorrow
  2. Flight of Icarus
  3. Hallowed Be Thy Name
  4. Invaders
  5. Children of the Damned
  6. Iron Maiden
  7. Sun and Steel
  8. The Ides Of March
  9. The Evil That Men Do
  10. Dejavu

Pela Web