Cifras Web
Iron Maiden

The fugitive

Iron Maiden

14 acessos

   Intro :

E-|-------------------------|-------------------------------------------------|
B-|-------------------------|-------------------------------------------------|
G-|-------------------------|-------------------------------------------------|
D-|-9--9--9--9--12-12-12-12-|-9--9--9--9--10-10-7-7---------------------------|
A-|-7xx7xx7xx7--10-10-10-10-|-7xx7xx7xx7--8--8--5-5---------------------------|
E-|-------------------------|-------------------------------------------------|

                                                                               
                                                                               

E-|-------------------------|-------------------------------------------------|
B-|-------------------------|-------------------------------------------------|
G-|-------------------------|-------------------------------------------------|
D-|-9--9--9--9--12-12-12-12-|-9-9-9-10-10-10--7-7-7--5-5-5--4-4-4-------------|
A-|-7xx7xx7xx7--10-10-10-10-|-7-7-7-8--8--8---5-5-5--3-3-3--2-2-2-------------|
E-|-------------------------|-------------------------------------------------|

                                                                               
                                                                               

E-|---------------------------------------------------------------------------|
B-|---------------------------------------------------------------------------|
G-|-9-10b--9-10-12--10-9-7----------------------------------------------------|
D-|---------------------------------------------------------------------------|
A-|---------------------------------------------------------------------------|
E-|---------------------------------------------------------------------------|

                                                                               


E-|-------------------------|-------------------------------------------------|
B-|-------------------------|-------------------------------------------------|
G-|-------------------------|-------------------------------------------------|
D-|-9--9--9--9--12-12-12-12-|-9--9--9--9--10-10-7-7---------------------------|
A-|-7xx7xx7xx7--10-10-10-10-|-7xx7xx7xx7--8--8--5-5---------------------------|
E-|-------------------------|-------------------------------------------------|

                                                                               
                                                                               

E-|-------------------------|-------------------------------------------------|
B-|-------------------------|-------------------------------------------------|
G-|-------------------------|-------------------------------------------------|
D-|-9--9--9--9--12-12-12-12-|-9-9-9-10-10-10--7-7-7--5-5-5--4-4-4-------------|
A-|-7xx7xx7xx7--10-10-10-10-|-7-7-7-8--8--8---5-5-5--3-3-3--2-2-2-------------|
E-|-------------------------|-------------------------------------------------|

                                                                               

   Start of Verse : 
          Dm         Am             C              E

E-|-------1-------------------------------------------------------------------|
B-|-----3---3---------1-------------1--------------0--------------------------|
G-|---2-------2-----2---2---------0---0----------1---1------------------------|
D-|-0-------------2-------2-----2-------2------2-------2----------------------|
A-|--------------0------------3--------------2--------------------------------|
E-|---------------------------------------------------------------------------|

    On a cold october mornin ....  
                                                                               

E-|-----------------------------------1------------1--------------------------|
B-|-------0-------------1-----------3---3--------3---3------------------------|
G-|-----1---1---------0---0-------2-------2----2-------2----------------------|
D-|---2-------2-----2-------2---0------------0--------------------------------|
A-|-2-------------3-----------------------------------------------------------|
E-|---------------------------------------------------------------------------|

                                                                               
                                                                               

E-|---------------------------------------------------------------------------|
B-|---------------------------------------------------------------------------|
G-|---------------------------------------------------------------------------|
D-|--------------------------7-7-7-7-7----------------------------------------|
A-|--------------------------5-5-5-5-5----------------------------------------|
E-|---------------------------------------------------------------------------|

   I carefully pick my time                                          
                                                                               


E-|------------------------------------|--------------------------------------|
B-|------------------------------------|--------------------------------------|
G-|------------------------------------|--------------------------------------|
D-|-7--7--7--5--5--5--2--2--2--3--3--3-|-3--3--3--5--5--5--7--7--7------------|
A-|-5xx5xx5--3xx3xx3--0xx0xx0--1xx1xx1-|-1xx1xx1--3xx3xx3--5xx5xx5------------|
E-|------------------------------------|--------------------------------------|

   I'm sick and ....                                                   


E-|------------------------------------|--------------------------------------|
B-|------------------------------------|--------------------------------------|
G-|------------------------------------|--------------------------------------|
D-|-7--7--7--5--5--5--2--2--2--3--3--3-|-3--3--3--5--5--5--7--7--7--7--7------|
A-|-5xx5xx5--3xx3xx3--0xx0xx0--1xx1xx1-|-1xx1xx1--3xx3xx3--5xx5xx5xx5xx5------|
E-|------------------------------------|--------------------------------------|



   Chorus :

E-|---------------------------------------------------------------------------|
B-|---------------------------------------------------------------------------|
G-|----------7------5-----5-5-----2-----------------3-------------------------|
D-|----------7------5-----5-5---2-2-----------------3-------------------------|
A-|----------5-x----3----x3x3---0-0---------------x-1-------------------------|
E-|---------------------------------------------------------------------------|

    I'm the fugi - tive         Being hunted ...    a game                    
                                                                               

E-|------------------------------------|--------------------------------------|
B-|------------------------------------|--------------------------------------|
G-|------------------------------------|--------------------------------------|
D-|-7--7--7--5--5--5--2--2--2--3--3--3-|-3--3--3--5--5--5--7--7--7------------|
A-|-5xx5xx5--3xx3xx3--0xx0xx0--1xx1xx1-|-1xx1xx1--3xx3xx3--5xx5xx5------------|
E-|------------------------------------|--------------------------------------|

                                                                              


E-|------------------------------------|--------------------------------------|
B-|------------------------------------|--------------------------------------|
G-|------------------------------------|--------------------------------------|
D-|-7--7--7--5--5--5--2--2--2--3--3--3-|-3--3--3--5--5--5--7--7--7--7--7------|
A-|-5xx5xx5--3xx3xx3--0xx0xx0--1xx1xx1-|-1xx1xx1--3xx3xx3--5xx5xx5xx5xx5------|
E-|------------------------------------|--------------------------------------|


   Chorus :

E-|---------------------------------------------------------------------------|
B-|---------------------------------------------------------------------------|
G-|----------7------5-----5-5-----2-----------------3-------------------------|
D-|----------7------5-----5-5---2-2-----------------3-------------------------|
A-|----------5-x----3----x3x3---0-0---------------x-1-------------------------|
E-|---------------------------------------------------------------------------|

    I'm the fugi - tive         Being hunted ...    a game                    


   Now a solo , Don know it an Ddon know the rythem ....



E-|-------------------------|-------------------------------------------------|
B-|-------------------------|-------------------------------------------------|
G-|-------------------------|-------------------------------------------------|
D-|-9--9--9--9--12-12-12-12-|-9--9--9--9--10-10-7-7---------------------------|
A-|-7xx7xx7xx7--10-10-10-10-|-7xx7xx7xx7--8--8--5-5---------------------------|
E-|-------------------------|-------------------------------------------------|

                                                                               
                                                                               

E-|-------------------------|-------------------------------------------------|
B-|-------------------------|-------------------------------------------------|
G-|-------------------------|-------------------------------------------------|
D-|-9--9--9--9--12-12-12-12-|-9-9-9-10-10-10--7-7-7--5-5-5--4-4-4-------------|
A-|-7xx7xx7xx7--10-10-10-10-|-7-7-7-8--8--8---5-5-5--3-3-3--2-2-2-------------|
E-|-------------------------|-------------------------------------------------|



E-|---------------------------------------------------------------------------|
B-|---------------------------------------------------------------------------|
G-|-9-10b--9-10-12--10-9-7----------------------------------------------------|
D-|---------------------------------------------------------------------------|
A-|---------------------------------------------------------------------------|
E-|---------------------------------------------------------------------------|


   Not sure ...

E-|---------------------------------------------------------------------------|
B-|---------------------------------------------------------------------------|
G-|---------------------3-----------------------------------------------------|
D-|---------3-2-----3-5---5-3-5-----------------------------------------------|
A-|-3-0-3-5-----3-5-----------------------------------------------------------|
E-|---------------------------------------------------------------------------|

                                                                                  

   Rythem for the last Solo :    
E-|---------------------------------------------------------------------------|
B-|---------------------------------------------------------------------------|
G-|---------------------------------------------------------------------------|
D-|-7-----10-----12-----------------------------------------------------------|
A-|-5-----8------10-----------------------------------------------------------|
E-|---------------------------------------------------------------------------|
                                                                               

TOP cifras de Iron Maiden

  1. Remember Tomorrow
  2. Flight of Icarus
  3. Hallowed Be Thy Name
  4. Invaders
  5. Children of the Damned
  6. Iron Maiden
  7. Sun and Steel
  8. The Ides Of March
  9. The Evil That Men Do
  10. Dejavu

Pela Web