Cifras Web
Jaco Pastorious

The Chicken

Jaco Pastorious

6 acessos

uhm this is teh only thing i have on the chicken sorry. but i think it sounds pretty 
good so here ya go.

G---------------------------------------------|
D---------------5--8--------------------------|   x4
A-----55-66---8-------------------------------|
E--66-----------------------------------------|

G---------------5--8--------------------------|
D-----55-66---8-------------------------------|   x2
A--66-----------------------------------------|
E---------------------------------------------|

G---------------4--7--------------------------|
D-----44-55---7-------------------------------|   x2
A--55-----------------------------------------|
E---------------------------------------------|

G---------------------------------------------|
D-----22-33--5-4-3----------------------------|   x2
A--33-----------------------------------------|
E---------------------------------------------|

G--1-3----------------------------------------|
D------1-3------------------------------------|
A----------1-4--------------------------------|
E--------------4--6---------------------------|


and thast the end to all i know from the chicken. i'm pretty sure that the first 3 and 
last one are correct but im not sure about the forth one. any suggestions i'm willing to listen.

TOP cifras de Jaco Pastorious

  1. The Chicken

Pela Web