Cifras Web
Jamie Foxx

Do What It Do

Jamie Foxx

7 acessos

It took more time to write the tab then it did learning this song. But It's right so enjoy.


E|---------5/6--------7\9/7---7-||
B|-------6-----------8------8---||
G|-----5-----------7------------||
D|---7-----------9--------------||
A|-5-----------7----------------||
E|------------------------------||




E|------------------------------||
B|---------5\8---------5\8/5---5||
G|-------5-----------5-------5--||
D|-----5-----------5------------||
A|---7-----------7--------------||
E|-5-----------5----------------||


Repeat this through the whole song. It's that simple.

 

TOP cifras de Jamie Foxx

  1. Fly Rio
  2. Do What It Do

Pela Web