Cifras Web
José Ribeiro

A Beleza da Rosa

José Ribeiro

151 acessos

Intro: Gm D Gm D Gm


     Gm
E|----------------------------------------
A|----------------------------------------
D|----5-------5---------------------------
S--------3-------3--------3--2--0---------
B|---------3-------3----------------------
E|----------------------------------------



      F#m5-   F#5-
E|--------------------------------------
A|--------------------------------------
D|-4------4-----4-----------------------
S|----------2-----2--------3-2-0--------
B|------------1-----1---1---------------
E|--------------------------------------   (2x)


Gm                Cm  D7
Tens a beleza da rosa
                       Gm
Uma das flores mais formosas
Cm                   Gm
Tú és a flor do meu lindo jardim
        Eb           D7
E eu a quero só para mim
Gm             Cm   D7
O teu suave perfume
                   Gm
As vezes causa-me ciúme
Cm                 Gm
Ao te beijar sinto no coração
     Eb           D      Gm     D7
O pulsar da mais pura paixão, porém
      Gm                      Cm
Tenho medo que tua beleza de rosa
                     D
Se transforme num espinho
       Cm             D
Quase morro só em pensar
                 Gm
Em perder teu carinho
                       G7
Tenho medo que esta paixão
            Cm
Seja uma ilusão sem fim
       Gm                   G#  D
Tenho medo que não sejas a flor
                 Gm D7 Gm D7 Gm
Do meu triste jardim

Solo: Gm Cm D Gm Cm Gm Eb D Gm D7

TOP cifras de José Ribeiro

  1. A Beleza da Rosa
  2. Suely
  3. Placa de Venda
  4. Tive Tanta Confiança
  5. Pensando Em Mariza
  6. Meu Coração Que Não Te Esquece
  7. Quando o Telefone Toca
  8. O Beijo
  9. Erro de Matrimônio
  10. Apenas Um Trago (Bom Dia Meu Amor)

Pela Web