Cifras Web
Juninho Afram

Quebrantado

Juninho Afram

22 acessos

Intro: C  G  Am  F

              C
Eu olho para cruz
               G
E para cruz eu vou
                     Am
Do seu sofrer participar
                       F
Da sua obra eu vou cantar

         C
Meu Salvador
            G
Na cruz mostrou
           Am
O amor do pai
         F
o justo Deus

C
   Pela cruz, me chamou
Am                         G
   Gentilmente me atraiu e eu
                          F
Sem palavras me aproximo
                         C
Quebrantado por seu amor (2x)

Interlúdio:
C  Am  G  F

          C
Imerecida vida
           G
De graça recebi
          Am
Por sua cruz
              F
Da morte me livrou

            C
Trouxe-me a vida
               G
Eu estava condenado
               Am
Mas agora pela cruz
               F
Eu fui reconciliado

C
Pela cruz, me chamou
Am                      G
Gentilmente me atraiu e eu
                         F
Sem palavras me aproximo
                        C
Quebrantado por seu amor (2x)

(Parte 1)(Base - C A G F)

E|-15----15----15----------------------------------|
B|-15b17-15b17-15b17r15p13-15-13~------------------|
G|--------------------------------9-9/10-10/12-12~-|
D|-------------------------------------------------|
A|-------------------------------------------------|
E|-------------------------------------------------| (2x)

(Parte 2)

E|-------------------------------------------------|
B|-12b13-12b13r12p10-12~----10~-13b15-13b15 13b15~-|
G|-----------------------/9------------------------|
D|-------------------------------------------------|
A|-------------------------------------------------|
E|-------------------------------------------------|

(Parte 3)

E|-------------------------------------------------|
B|-15b17-T16/18p17T-17r15-15~----------------------|
G|----------------------------3h5-3-7-5---5-7-5~---|
D|----------------------------3h5-3-7-5-7-5-7-5~---|
A|--------------------------------------7----------|
E|-------------------------------------------------|

(Parte 4 - rápida)

E|---------------------------------------------------------------------------------|
B|---------------------------------------------------------------------------------|
G|-2-----5-----5-----7-----7-----9------9------12-------12-------14-------14-------|
D|---5-4---7-5---7-5---9-7---9-7---11-9---11-9----14-12----14-12----17-14----17-14-|
A|---------------------------------------------------------------------------------|
E|---------------------------------------------------------------------------------|

(Parte 5)

E|-------17-15-12-11-|
B|-13/15-------------|
G|-------------------|
D|-------------------|
A|-------------------|
E|-------------------|

(Parte 6 - rápida (Simplificado))

E|-17-12-11-|
B|----------|
G|----------|
D|----------|
A|----------|
E|----------| (6x)

C
Pela cruz, me chamou
A
Gentilmente me atraiu e eu
G
Sem palavras me aproximo
F
Quebrantado por seu amor (2x)

Dm                     C/E  F  C/E
Impressionante é o seu  a--mor
Dm              C/E F
Me redimiu e me mostrou
           G
O quanto é fiel (2x)

Top cifras de Juninho Afram

  1. Hands
  2. Little Boy
  3. Quebrantado
  4. Ousado Amor "Reckless Love"
  5. Ousado Amor "Reckless Love"
  6. O Tempo

Pela Web