Cifras Web
Kanaviá

Canção dos Amigos

Kanaviá

9 acessos

INTRO (G G Am C)

_Intro:


e|---------------------8-----8----13-11---------13-11---------13-11---------|
B|--------------9-11-9------------------13-11---------13-11---------13------|
G|---8--8s10-----------------------------------------------------------13---|
D|--------------------------------------------------------------------------|
A|--------------------------------------------------------------------------|
E|--------------------------------------------------------------------------|



e|-----13-11---------13-11---------13-11-------------|
B|-----------13-11---------13-11---------13----------|
G|-13---------------------------------------13-------|
D|---------------------------------------------------|
A|---------------------------------------------------|
E|---------------------------------------------------|



 
 G		     Am
 A magia do som o que pode transmitir,
	C			G
 eu sonhei a vida inteira algum dia estar aqui
 G		     Am			
 com meus amigos e irmãos, 
 	C			G
 amigos que permanecem, amigos que desaparecem.

 G				     Am
 Pode durar a vida inteira ou pode mudar, |
	      C		    G
 sempre vou tocar aquela canção           |
 G			Am			BIS
 O som que alegra o coração 		  |
	      C			  G
 e aos meus irmãos que estejam em paz     |
 
 G	   Am C		G	
 Lalalaiaa... lalalalaiá...

 
 Repete Intro

TOP cifras de Kanaviá

  1. Diabo é Careta
  2. Luau la na trindade
  3. Tatoo de Rena
  4. Pertinho do Mar
  5. Canção dos Amigos
  6. Seu lugar
  7. Quando é Quinta Feira
  8. Só Quero Você
  9. Xote Caiçara
  10. Esperando por você

Pela Web