Cifras Web
Keith Urban

I Told You So

Keith Urban

8 acessos

Tabbed By :Corvettemike
e-mail:*

I'm pretty surethis is how it goes. It's probably not 100% right, but it sounds damn 
when I play it with the record.
Into:
G|------------------------------------------------------------------|
D|--------------------555555----------------------------------------|
A|-----777777777---------------55555555-----------------------------|
E|---------------------------------------555555---------------------|
Verse
G|-------------------------------------------------------------------------|
D|-----------------555555-------------------------7------------------------|
A|-----77777777--------------555555------------5---------------------------|
E|------------------------------------555555-------------------------------|
Pre Chorus:
G|-----------------------------------------------------------------------------|
D|-------------9999----------------------------7777----------------------------|
A|-----7777----------------------------5555----------------5-------------------|
E|-------------------------------------------------------5---------------------|
Chorus:
G|-------------------------------------------------------------------------|
D|----------5----7---------------------------------------------------------|
A|------5-------------7---9--7-5-------------5555-------7777---------------|
E|---5--------------------------------5555---------------------5555--------|
Interlude:
G|-----------------------------------------------------------------------------|
D|--------------7777-------------99---77-----55--------------------------------|
A|---55555----------------------------------------9--8-7--8--7-6--7--6--5------|
E|-----------------------------------------------------------------------------|
Close (repeat 4x)
G|-------------------------------------------------------------------------|
D|----------------555555---------------------------------------------------|
A|----777777-----------------555555----------------------------------------|
E|-------------------------------------555555------------------------------|


| /  slide up
| \  slide down
| h  hammer-on
| p  pull-off
| ~  vibrato
| +  harmonic
| x  Mute note
===============================================================================

TOP cifras de Keith Urban

  1. Tonight I Wanna Cry Intro
  2. But For the Grace of God
  3. Got It Right This Time
  4. I Wanna Be Your Everything
  5. Faster Car Intro
  6. Days Go By Intro
  7. You Or Somebody Like You
  8. Live To Love Another Day
  9. Only You Can Love Me This Way
  10. What About Me?

Pela Web