Cifras Web
Keith Urban

Making Memories Of Us Intro

Keith Urban

8 acessos

Verse (0:19-0:37)

E|---0--------------------------0--------0------------------x2x0---------|
B|--0--0------4-------------------0-----0--0------4--------5x4x2---20----|
G|-1----1----4--4------5-------2---2---1----1----4--4-----6-x4x2--2--2---|
D|2------2--4----4----6--6----2-----2-2------2--4----4---6--x4x2-2----20-|
A|---------2------2--6----6--0-----------------2------2-4---x2x0---------|
E|------------------4------4--------------------------------x2x0---------|


Verse (0:38-0:56)

E|---0---------0--------------------------0------------------x2x0--------0-|
B|--0--0--------4----------------0---0---0--0------4--------5x4x2----0h2-2-|
G|-1----1----4---4------5-------2-2-2---1----1----4--4-----6-x4x2---2----2-|
D|2------2--4-----4----6--6----2---2---2------2--4----4---6--x4x2--2-----2-|
A|---------2-------2--6----6--0-----------------2------2-4---x2x0-0------0-|
E|-------------------4------4--------------------------------x2x0--------0-|


x=slap strings with palm


email me P*

TOP cifras de Keith Urban

  1. Tonight I Wanna Cry Intro
  2. But For the Grace of God
  3. Got It Right This Time
  4. I Wanna Be Your Everything
  5. Faster Car Intro
  6. Days Go By Intro
  7. You Or Somebody Like You
  8. Live To Love Another Day
  9. Only You Can Love Me This Way
  10. What About Me?

Pela Web