Cifras Web
Kutless

This Time

Kutless

4 acessos

(intro) (0:04)
G|-----------------------------|
D|-----------------------------|
A|-0-1--1--1-3-------1--1--1-3-|
D|--------------3\0------------|

(0:15)                                                  (0:44)
G|--------------------------------------------------------------|------------------|
D|--------------------------------------------------------------|------------------|
A|------1--1--1-3-------1--1--1-3-----1--1--1-3-------1--1--1-3-|----1--------1----|
D|-3\0-------------3\0-------------0-------------3\0------------|-0-----3--0-----3-|

(0:59)                                                  
G|--------------------------------------------------------------|
D|--------------------------------------------------------------|
A|------1--1--1-3-------1--1--1-3-----1--1--1-3-------1--1--1-3-|
D|-3\0-------------3\0-------------0-------------3\0------------|

(1:28)                     (3x)
G|----------------------------|
D|----------------------------|
A|----1-------------1---------|
D|-0-----3--1-1--0-----3--1-1-|

(2:11)
G|-----------------------------------------------------------|
D|----------------3--3-5-3----------3--3-5-3----------3------|
A|-------------------------5-----------------5---------------|
D|-0--0--0--0--0--------------0--0--------------0--0-----1-1-|

(2:48)                     (3x)
G|----------------------------|
D|----------------------------|
A|----1-------------1---------|
D|-0-----3--1-1--0-----3--1-1-|

(3:32)                                                  
G|----------------------|
D|----------------------|
A|----1--1--1-3-------1-|
D|-0-------------3\0----|

TOP cifras de Kutless

  1. Mistakes Intro
  2. Winds Of Change
  3. Ready For You
  4. Complete
  5. New Years Vow
  6. Run
  7. All Who Are Thirsty
  8. Strong Tower
  9. To Know That Youre Alive
  10. Arms of Love

Pela Web