Cifras Web
L.a Guns

Nothing To Lose

L.a Guns

5 acessos

Album:L.A. Guns
Bassist:Kelly Nickels
Tabber:Dev Fuld

This is an awesome song, with some awesome bass riffs. I'm pretty sure this 
is right. The chorus may be a little off, but it still sounds fine.

Key:
* = let it ring

Intro
G:-------------------------|-------------------------|-------------------------|
D:-------------------------|-------------------------|-------------------------|
A:-------------------------|-------------------------|-------------------------|
E:0--3-0-3-3-3-0--0-3-0-5-3|0--3-0-3-3-3-0--0-3-0-5-3|0--3-0-3-3-3-0--0-3-0-5-3|

G:-------------------------|
D:-------------------------|
A:------------------------5|
E:0--3-0-3-3-3-0--0-3-0-5--|

Verse
G:------------------------------------------|------------------------------------------|
D:------------------------------------------|------------------------------------------|
A:-----------------------------------------5|-----------------------------------------5|
E:5555555555555553-0--3-0-3-3-3-0--0-3-0-5--|5555555555555553-0--3-0-3-3-3-0--0-3-0-5--|

G:-----------------------------------|
D:-----------------------------------|
A:55555555555555555555555555-33-22-00|
E:-----------------------------------|

G:-------------------------|-------------------------|
D:-------------------------|-------------------------|
A:-------------------------|-------------------------|
E:0--3-0-3-3-3-0--0-3-0-5-3|0--3-0-3-3-3-0--0-3-0-5-3|

Chorus
G:-------------------------------------------------------------------------------------|
D:3-2-0----5-4-7-5-------------3-2-0----5-4-7-5-------------3-2-0----5-4-7-5-----------|
A:------3-----------7--5--7--5-------3-----------7--5--7--5-------3----------7--5--7-5*|
E:-------------------------------------------------------------------------------------|

After Chorus
G:-------------------------|-------------------------|
D:-------------------------|-------------------------|
A:-------------------------|-------------------------|
E:0--3-0-3-3-3-0--0-3-0-5-3|0--3-0-3-3-3-0--0-3-0-5-3|

Verse

Chorus

Solo
G:---------------------------|---------------------------|---------------------------|
D:---------------------------|---------------------------|---------------------------|
A:---------------------------|---------------------------|---------------------------|
E:0--3-0-3-3-3-0--0-3-0-66-55|0--3-0-3-3-3-0--0-3-0-66-55|0--3-0-3-3-3-0--0-3-0-66-55|

G:---------------------------|---------------------------|---------------------------|
D:---------------------------|---------------------------|---------------------------|
A:---------------------------|0--3-0-3-3-3-0--0-3-0-66-55|0--3-0-3-3-3-0--0-3-0-66-55|
E:0--3-0-3-3-3-0--0-3-0-66-55|---------------------------|---------------------------|

G:---------------------------|---------------------------|
D:---------------------------|---------------------------|
A:---------------------------|---------------------------|
E:0--3-0-3-3-3-0--0-3-0-66-55|0--3-0-3-3-3-0--0-3-0-66-55|

Bridge
G:-----------|---------------------------------|
D:-----------|---------------------------------|
A:-----------|7*-9*-10*-12-12-12-12-12-12-12-12|
E:0*-2*-3*-5*|---------------------------------|

Bridge part 2
G:---------------------------|---------------------------|---------------------------|
D:---------------------------|---------------------------|---------------------------|
A:---------------------------|---------------------------|---------------------------|
E:0--3-0-3-3-3-0--0-3-0-66-55|0--3-0-3-3-3-0--0-3-0-66-55|0--3-0-3-3-3-0--0-3-0-66-55|

G:---------------------------|---------------------------|---------------------------|
D:---------------------------|---------------------------|---------------------------|
A:---------------------------|---------------------------|---------------------------|
E:0--3-0-3-3-3-0--0-3-0-66-55|0--3-0-3-3-3-0--0-3-0-66-55|0--3-0-3-3-3-0--0-3-0-66-55|

Verse

Chorus
G:--------------------------------------------------------------------------|
D:3-2-0----5-4-7-5-------------3-2-0----5-4-7-5-------------3-2-0----5-4-7-5|
A:------3-----------7--5--7--5-------3-----------7--5--7--5-------3---------|
E:--------------------------------------------------------------------------|

G:-------------------------|-------------------------|
D:-------------------------|-------------------------|
A:-------------------------|-------------------------|
E:0--3-0-3-3-3-0--0-3-0-5-3|0--3-0-3-3-3-0--0-3-0-5-3|

G:-------------------------------------------------------------------------------------|
D:3-2-0----5-4-7-5-------------3-2-0----5-4-7-5-------------3-2-0----5-4-7-5-----------|
A:------3-----------7--5--7--5-------3-----------7--5--7--5-------3----------7--5--7-5*|
E:-------------------------------------------------------------------------------------|

End (basically just fade out with these riffs)
G:-------------------------|-------------------------|-------------------------|
D:-------------------------|-------------------------|-------------------------|
A:-------------------------|-------------------------|-------------------------|
E:0--3-0-3-3-3-0--0-3-0-5-3|0--3-0-3-3-3-0--0-3-0-5-3|0--3-0-3-3-3-0--0-3-0-5-3|

G:-------------------------|-------------------------|-------------------------|
D:-------------------------|-------------------------|-------------------------|
A:-------------------------|-------------------------|-------------------------|
E:0--3-0-3-3-3-0--0-3-0-5-3|0--3-0-3-3-3-0--0-3-0-5-3|0--3-0-3-3-3-0--0-3-0-5-3|

G:-------------------------|-------------------------|-------------------------|
D:-------------------------|-------------------------|-------------------------|
A:-------------------------|-------------------------|-------------------------|
E:0--3-0-3-3-3-0--0-3-0-5-3|0--3-0-3-3-3-0--0-3-0-5-3|0--3-0-3-3-3-0--0-3-0-5-3|

That's it. This is an excellent tune by L.A. Guns. I already put it in order 
for you. Any questions or comments, e-mail me at *

TOP cifras de L.a Guns

  1. The Ballad of Jayne
  2. I Wanna Be Your Man
  3. Crystal Eyes
  4. No Mercy
  5. I Found You
  6. One Way Ticket
  7. It's over now
  8. The Ballad Of Jayne Intro
  9. One More Reason
  10. Bitch Is Back

Pela Web