Cifras Web
L.a Guns

Some Lie 4 Love

L.a Guns

7 acessos

Album:Hollywood Vampires
Bassist:Kelly Nickels
Tabber:Dev Fuld

This is one of my favorite L.A. Guns songs, off of one of my favorite L.A. Guns 
albums.

Key:
* = let it ring

*Guitar intro*

Intro
G:-----------------------|--|----------------------------------------------------|
D:7-5-7--7-5-------------|--|----------------------------------------------------|
A:-----------7-5--7-5-7--|--|-----3*--5*--------3*--5*--------3*--5*--------3*-5*|
E:----------------------5|--|5*------------5*------------5*------------5*--------|

Verse 1
G:------------------|------------------|------------------|------------------|
D:------------------|------------------|------------------|------------------|
A:---------3333-5555|---------3333-5555|---------3333-5555|---------3333-5555|
E:55555555----------|55555555----------|55555555----------|55555555----------|

G:------------------|------------------|------------------|------------------|
D:------------------|------------------|------------------|------------------|
A:---------5555-----|---------5555-----|---------5555-----|---------5555-----|
E:55555555------3333|55555555------3333|55555555------3333|55555555------3333|

Chorus
G:----------------------------------------------------|
D:----------------------------------------------------|
A:-----3*--5*--------3*--5*--------3*--5*--------3*-5*|
E:5*------------5*------------5*------------5*--------|

Verse 1

Chorus

Solo
G:------------------|------------------|------------------|-------------------------|
D:------------------|------------------|------------------|-------------------9-9---|
A:---------5555-7777|---------5555-7777|---------5555-7777|---------5*-7*-----------|
E:77777777----------|77777777----------|77777777----------|77777777-------7*------5*|

G:---------------------------------------------------------------------------------|
D:---------------------------------------------------------------------------------|
A:-----3*--5*--------3*--5*--------3*--5*--------3*--5*--------3*--5*--------3*--5*|
E:5*------------5*------------5*------------5*------------5*------------5*---------|

Verse 2
G:------------------|------------------|------------------|---------------|
D:------------------|------------------|------------------|---------------|
A:---------3333-5555|---------3333-5555|---------3333-5555|---------3*--5*|
E:55555555----------|55555555----------|55555555----------|55555555-------|

End
G:-----------------------------------------------------|
D:-----------------------------------------------------|
A:-----3*--5*--------3*--5*--------3*--5*--------3*--5*|
E:5*------------5*------------5*------------5*---------|

G:-----------------------------------------------------|-----|
D:-----------------------------------------------------|-----|
A:-----3*--5*--------3*--5*--------3*--5*--------3*--5*|--3--|
E:5*------------5*------------5*------------5*---------|5---5|

That's it. Such an awesome song. The bass intro sounds pretty cool when you 
get the hang of it. I've already put it in order for you. Any questions or comments, 
e-mail me at *

TOP cifras de L.a Guns

  1. The Ballad of Jayne
  2. I Wanna Be Your Man
  3. Crystal Eyes
  4. No Mercy
  5. I Found You
  6. One Way Ticket
  7. It's over now
  8. The Ballad Of Jayne Intro
  9. One More Reason
  10. Bitch Is Back

Pela Web