Cifras Web
La Ley

Delirando Acoustic

La Ley

7 acessos

El siguiente punteo se repite muchas veces pero solo en los versos 
y se hace con 2 guitarras pero de manera diferente

Guitarra # 1

E|----------------------------------------------|
B|----------------------------------------------|
G|----------------------------------------------|
D|--------------------------------------0--2----|
A|-------------0------0---1---0---1-1-----------|
E|-0---3---0-------3----------------------------|



E|----------------------------------------------|
B|----------------------------------------------|
G|----------------------------------------------|
D|----------------------------------------------|
A|-------------0------0---1---0---1-1--0--------|
E|-0---3---0-------3----------------------------|


Guitarra # 2

E|-------------------------------------------|
B|-------------------------------------------|
G|-------------------------------------7-9---|
D|---------------7-------7--8--7--8-8--------|
A|--7---10---7-------10----------------------|
E|-------------------------------------------|



E|-------------------------------------------|
B|-------------------------------------------|
G|-------------------------------------------|
D|---------------7-------7--8--7--8-8---7----|
A|--7---10---7-------10----------------------|
E|-------------------------------------------|


Verso:

perdoname, voy a cruzar un mundo sin lamentos que sujetar
recuerdame, de no voltear no quiero arrepentirme o petrificar

Em G  Em  G

Coro:

Em       G A   Em            G A
estoy llegando donde nunca fui
Em  G A    Em
delirando nooooooo

Verso:

despiertame, para llegar donde no hay referencias de sociedad
no juzgare, ni violare las leyes que en mi mente destrozare ah ah

Puente:
Em         G       A
todos los dias predican asi te lo digo yo

Coro:

Em       G A   Em            G A
estoy llegando donde nunca fui
Em  G A    Em           G   A
delirando  de locura y sensatez
Em       G A    Em             G A
estoy robando el tiempo que perdi

Em  G A    Em           G   A
delirando  de locura y sensatez
Em           G   A
de locura y sensatez

luego de esto se toca el punteo 6 veces seguidas y

Puente:
Em         G       A
todos los dias predican asi te lo digo yo

Coro:

Em       G A   Em            G A
estoy llegando donde nunca fui
Em  G A    Em           G   A
delirando  de locura y sensatez
Em       G A    Em             G A
estoy robando el tiempo que perdi

Em  G A    Em           G   A
delirando  de locura y sensatez
Em           G   A
de locura y sensatez
Em           G   A
de locura y sensatez
Em           G   A
de locura y sensatez

Em  G A  Em   G A

Em  G A
delirando

Em  G A  Em  G A
         delirandoooooooooo

TOP cifras de La Ley

  1. Bon Voyage
  2. The Corridor
  3. Libertad
  4. La luna
  5. El Duelo (unplugged)
  6. El Duelo
  7. Eternidad
  8. Intenta Amar
  9. Roces
  10. Sabes Quien Eres

Pela Web