Cifras Web
Laluna e Vinicius

Parafuso

Laluna e Vinicius

10 acessos

Refrão:

E|--5------5-----5-----5-----5-----5----    |5-5---5-5|
B|----3------3-----3-----3-----3-----3--    |3-3---3-3|
G|-4------4-----4-----4------4-----4----(3x)|4-4---4-4|
D|--------------------------------------    |---------|
A|--------------------------------------    |---------|
E|--------------------------------------    |---------|


D           A                     Bm
Tem um parafuso solto na minha cabeça
   G                  D
Deixei pra você apertar
              A                         Em
Ainda morro disso, fico louco, não se esqueça
     G         A        D
Seu amor pode me consertar

Intro: D A Bm G D A Em G A D
Solo:

E|-------------------------------|
B|-2h3-3-3-3-3-2-2-2-2-2-2-2-2h3-|
G|-------------------------------|  (2x)
D|-------------------------------|
A|-------------------------------|
E|-------------------------------|


D         A            Bm
Tenho andado a sua procura
G
Onde se esconde?
D        A          Em
Você sumiu, saiu na madrugada
G                    D
Só agora por telefone

D             A                  Bm
Me liga pra dizer que quer um tempo
G                         D
Nem liga pro meu sentimento
               A                  Em
Pensa que tá tudo bem, ta tudo joia
G              D
To numa paranóia

Refrão 2x:
D           A                     Bm
Tem um parafuso solto na minha cabeça
   G                  D
Deixei pra você apertar
              A                         Em
Ainda morro disso, fico louco, não se esqueça
     G         A        D
Seu amor pode me consertar
(só o seu amor pode me consertar)

D             A                  Bm
Me liga pra dizer que quer um tempo
G                         D
Nem liga pro meu sentimento
               A                  Em
Pensa que tá tudo bem, ta tudo joia
G              D
To numa paranóia

Refrão 4x:
D           A                     Bm
Tem um parafuso solto na minha cabeça
   G                  D
Deixei pra você apertar
              A                         Em
Ainda morro disso, fico louco, não se esqueça
     G         A        D
Seu amor pode me consertar

    G         A        D
Seu amor pode me consertar
      A          Em
Seu amor, seu amor...
      G      A         D
Seu amor pode me consertar

Top cifras de Laluna e Vinicius

  1. Pára
  2. Fala Parceiro
  3. Pegada
  4. Parafuso
  5. Cadeado
  6. Oba, Oba

Pela Web