Cifras Web
Lamartine Babo

Hino do Botafogo

Lamartine Babo

7 acessos

Introdução


e-----------11-10-8-----------------------------------8-6-5-/
B------8------------11-10-8---------------------------------/
G-8/10---10-----------------10-9-10b12-10~------7-8-7-------/
D-----------------------------------------------------------/
A-----------------------------------------------------------/
E-----------------------------------------------------------/



e-----5-6-8-8b10----7-10-8~------5-8-6---5------------------/
B-8-7----------------------------------7----8~--------------/
G-----------------------------------------------------------/
D-----------------------------------------------------------/
A-----------------------------------------------------------/
E-----------------------------------------------------------/

      ///    

e-----------6-10~-------------------------------------------/
B---6-----8-------------------------------------------------/
G-7---878---------------------------------------------------/
D-----------------------8~----------------------------------/
A----------------------8------------------------------------/
E-----------------------------------------------------------/

 
Versos:

Botafogo,  Botafogo     Campeão desde    1907 -> 1910


e-----------------------------------------------------------/
B-----------------------------------------------------------/
G-------------7---------------------------------------------/
D------8-8-10----7-7--8-10-------------------------7--------/
A--8-8---------------------10~--10-8-10--10-8-10-8---10-----/
E-----------------------------------------------------------/


Foste herói em cada jogo, Botafogo,     por isso que tu és,


e-----------------------------------------------------------/
B-----------------------------------------------------------/
G-----------------------------------------------------------/
D-----7-7-8-10---5-5--7-8-----------------------------------/
A-8-8------------------------------8~----5-8-6-5----8~~~----/
E------------------------------------------------8----------/


E hás de ser    nosso imenso prazer         tradições,


e-----------------------------------------------------------/
B-----------------------------------------------------------/
G---------------5-7-5---------------------------5~----------/
D---5-7-8~------------8-5-8~----------------5-5-------------/
A-8---------------------------------------------------------/
E-----------------------------------------------------------/




Aos milhões tens também           tu és O Glorioso,


e-----------------------------------------------------------/
B----4------------------------------------------------------/
G--7---7---5-3-5-------------------3-3--5-3---5-5-----------/
D-----------(5)-------------------3---------5---------------/
A-----------------------------------------------------------/
E-----------------------------------------------------------/


Não podes perder,    perder pra ninguém.


e-----------------------------------------------------------/
B-----------------------------------------------------------/
G-5-7-5-7---7b8------8-7------------------------------------/
D------(5)----------------8--10-8~~~------------------------/
A-----------------------------------------------------------/
E-----------------------------------------------------------/


Noutros          esportes,        tua fibra está presente,


e----------------------------11-10-8------------------------/
B--------8---------------------------11-10-8----------------/
G---8/10---10--------------------------------10-9-10b12-10~-/
D-----------------------------------------------------------/
A-----------------------------------------------------------/
E-----------------------------------------------------------/



Honrando as cores, do Brasil             de nossa gente.


e--------8-6-5-----------------------------5-6-8--8b10------/
B--------------------8-7------------------------------------/
G-7-8-7-----------------------------------------------------/
D-----------------------------------------------------------/
A-----------------------------------------------------------/
E-----------------------------------------------------------/


Na estrada do louros                num facho de luz 


e-7--10-8---8~-----------------------5--8-6---6~------------/
B---------8---------------------------------6---------------/
G-----------------------------------------------------------/
D-----------------------------------------------------------/
A-----------------------------------------------------------/
E-----------------------------------------------------------/


Tua estrela solitária               te conduz. 

e--6---6---6-------------------6-5----5-6~------------------/
B----8---8---8----------------------8-----------------------/
G-----------------------------------------------------------/
D-----------------------------------------------------------/
A-----------------------------------------------------------/
E-----------------------------------------------------------/

TOP cifras de Lamartine Babo

  1. Jou Jou Balagandans
  2. Chegou a Hora da Fogueira
  3. Uma Andorinha Não Faz Verão
  4. Cantores de Rádio
  5. Ride Palhaço
  6. No Rancho Fundo
  7. Linda Morena
  8. Serra da Boa Esperança
  9. Grau Dez
  10. Marchinha do Grande Galo

Pela Web