Cifras Web
Lázaro

Deus Vai Fazer

Lázaro

31 acessos

(intro) G  D Em D C


E|---------------------------------------------------------|
B|-----8----10----8----10------12--------------------------|
G|-7-----------------------------------7---7---------------|
D|---------------------------------------------------------|
A|---------------------------------------------------------|
E|---------------------------------------------------------|



E|---------------------------------------------------------|
B|--13----12---10---10--------------------------------------|
G|-----------------------7--7------------------------------|
D|---------------------------------------------------------|
A|---------------------------------------------------------|
E|---------------------------------------------------------|



E|---------------------------------------------------------|
B|-10--8-7-8---10---8---7----5-----------------------------|
G|-----------------------------7---5--9--7--5--9--7------|
D|---------------------------------------------------------|
A|---------------------------------------------------------|
E|---------------------------------------------------------|


G                         D/F#
Já faz um tempo que você clamou
                           Em
Por muitas vezes sim você chorou
               Em/D         C     D                   G
Mas a vitória nunca, nunca vem... não, não, não, não vem
             D/F#           Em
Então você pergunta a Deus porquê
                             C
O que eu fiz Senhor pra não, não merecer
              G/B              Am     D          G         G         Cm
Misericórdia Deus eu sou Teu filho, eu sou Teu filho | (ah, ah, ah,ah,ah) (2x)

G                              D/F#
Pergunta pra si mesmo onde está Deus
                          Em
Que tantas coisas boas prometeu
              Em/D             C      D                  G
Mas essas coisas nunca, nunca vem... não, não, não, não vem
          D/F#             Em
Então você não sabe o que fazer
                            C
A dor e o desespero não te deixa ver
                     G/B      Am     D         G
Que Deus tem algo profundo contigo, Ele é contigo

            D/F#          Em
O que Deus preparou é bem maior
            Em/D                   C
O que Deus tem pra ti irmão, é bem melhor
              G/B             Am     D         G
Creia nas promessas creia em Cristo, Ele é contigo
     D/F#             Em
Deus vai fazer acontecer
           Em/D            C
O teu inimigo não vai entender
              G/B               Am     D         G
Creia nas promessas, creia em Cristo, Ele é contigo

(solo) G  D  Em  D  C

TOP cifras de Lázaro

  1. Mesmo Assim Te Louvarei
  2. Pense Em Jesus
  3. Eu Te Amo Tanto
  4. Ainda Bem Eu Vou Morar No Céu
  5. A Minha Vida É do Mestre
  6. Minha Vida e do Mestre/ainda Bem (simplificada)
  7. Conte a Deus
  8. Passando Pela Prova
  9. Colorir de Amor
  10. Oh Glóra, Dai Glória

Pela Web