Cifras Web
Legião Urbana

Pais e Filhos

Legião Urbana

54 acessos

(Riff intro)

(1ª parte)

(Tocado na intro e na 1² estrofe)


E|--------------8-----5---7------7----|
B|-1--3--5----------------------------|
G|---------0-------0----0------0---0--|
D|-----------0--------4------0--------|
A|-0--2--3----------------------------|
E|------------------------------------|


(Riff intro)

Estátuas e cofres
E paredes pintadas
Ninguém sabe
O que aconteceu...

Ela se jogou da janela
Do quinto andar
Nada é fácil de entender...

(Dedilhado - 2ª parte)


E|-3----3---3---3----3---3----0--0--0----2---2---2-----|
B|-1--1---1---1-0--0---0---0--1-1--1--1--3-3---3--3----|
G|-2------------0-------------0----------4-------------|
D|-3------------2-------------2----------4-------------|
A|----------------------------3----------2-------------|
E|-----------------------------------------------------|


(Dedilhado - 3ª parte)


E|-3---3---3---3----3---3----5---5---5---5---5--5------|
B|-1-1---1---1-1--1---1---1--3--3--3---3-3-3---3--3----|
G|-0-----------0-------------2-----------2-------------|
D|-2-----------2-------------0-----------0-------------|
A|-0-----------0---------------------------------------|
E|-----------------------------------------------------|


F9        Em  C
   Dorme agora
Bm       Am7
Uuummhum!

É só o vento
    D
Lá fora...
C      D
  Quero colo!
 G
Vou fugir de casa
 C        D
Posso dormir aqui
 G
Com vocês
   C D
Estou com medo
 G
Tive um pesadelo
 C    D
Só vou voltar
   G
Depois das três...

(C D)

F9     Em           C
   Meu filho vai ter
         Bm
Nome de santo
Am7
Uummhum!

Quero o nome
    D
Mais bonito

      G        C
É preciso amar   as pessoas
      Em                  C
Como se não houvesse amanhã
            G         C
Por que se você parar
           Em7
Prá pensar
                C   G
Na verdade não há...

      G
Me diz  por que que o céu é azul

Explica a grande fúria do mundo

São meus filhos

Que tomam conta de mim...

Eu moro com a minha mãe

Mas meu pai vem me visitar

Eu moro na rua

Não tenho ninguém

Eu moro em qualquer lugar...

Já morei em tanta casa

Que nem me lembro mais
                C
Eu moro com os meus pais

Huhuhuhu!...ouh! ouh!...

      G        C
É preciso amar   as pessoas
      Em                  C
Como se não houvesse amanhã
            G         C
Por que se você parar
           Em7
Pra pensar
                C   G
Na verdade não há...

G                  C
Sou uma gota d'água
Em                 C
Sou um grão de areia
         G
Você me diz que seus pais
       C
Não entendem
      Em                   C
Mas você não entende seus pais...

            G
Você culpa seus pais por tudo
       G
Isso é absurdo
         G      G
São crianças como você
              G   G
O que você vai ser
                    G
Quando você crescer?

(Solo final 2x)

E|-------8---------10------------7/-10--12-10---------------|
B|--------8----------10--------8-7/-10----------------------|
G|-7-7/9----9-9/11------11\7-7---7/-10----------------------|
D|----------------------------------------------------------|
A|----------------------------------------------------------|
E|----------------------------------------------------------|

TOP cifras de Legião Urbana

  1. Andrea Doria
  2. Teatro Dos Vampiros
  3. Eu Amo Mais Você
  4. A Via Láctea
  5. Índios
  6. Eu Era Um Lobisomem Juvenil
  7. Há Tempos
  8. L´Aventura
  9. Pais e Filhos
  10. Plantas Embaixo Do Aquário

Pela Web