Cifras Web
Lenny Kravitz

California

Lenny Kravitz

7 acessos

E                               G#m
I was converted to the other side
A                          C  B A   
from the day I'd gotten there
E                               G#m
I met a girl who took me on a ride
A                       C  B A
I was young I had no cares

                 F#      B	
when I moved to California
F#        B
California

E                                     G#m
She played me records I had never heard
A                            C B A
while we toked on purple hairs
E
Who Zeppelin, Beatles
         G#m
Kiss, The Rolling Stones
A                           C  B A
while we played guitars in air
                F#          B
when I moved to California
F#       B
California
F#       B
California 
G               A
California love

Riff

|-------------------------------------------------------------------------|
|-------------------------------------------------------------------------|
|-------------------------------------------------------------------------|
|-2-2----2----2-2-2----2----2----2-5-5-5-5-5-5-5-7-7-7-7-7-7-7------------|
|-2-2----2----2-2-2----2----2----2-5-5-5-5-5-5-5-7-7-7-7-7-7-7------------|
|-0-0-h3-0-h3-0-0-0-h3-0-h3-0-h3-0-3-3-3-3-3-3-5-5-5-5-5-5-5-5------------|


Ouça a música para encaixar o tempo do riff.

                                           
venice beach and P.O.P                 
                   
station 26 was free

Jeff Ho and Horizons west
                                                   
                              
Dogtown skates they were the best
                         
Hand ten, O.P. were the brands
                          
don't forget the two-tone vans


Base do Solo

E   Eb   C#   C B A

E                                    G#m
I miss the apple and my schoolyard boys
A                      C  B A
nothing ever will compare
E                  G#m
but now I skateboard
A
with my surfer girl
                     C  B A
and we really are a pair

              F#          B
When I moved to California
F#          B
California
F#         B
California
G               A  E
California love


Solo   |*** ROBERTO ***|

------------------------------------------------------------------------------
------------------------------------------------------------------------------
--9/13-14-16-16-16--16-18-20-16-16-16-16-14-16-14-16-13--9-11-12b-11h13p11-9--
------------------------------------------------------------------------------
------------------------------------------------------------------------------
------------------------------------------------------------------------------



------------------------------------------------------------------------------
------------------------------------------------------------------------------
--9/13-14-16-16-16--16-18-20-16-16-16-16-14-16-14-13-11--9-11-12b-11h12p11-9--
------------------------------------------------------------------------------
------------------------------------------------------------------------------
------------------------------------------------------------------------------




-15p12----15p12----15p12----15p12----15p12----15p12----15p12-----12h15-12h15--
-------12-------12-------12-------12-------12-------12-------12-------------12
------------------------------------------------------------------------------
------------------------------------------------------------------------------
------------------------------------------------------------------------------
------------------------------------------------------------------------------




12h15p12h15p12h15p12h15p12h15p12h15p12h15----------12121212121212121212121212-
-----------------------------------------12--------14141414141414141414141414-
------------------------------------------------------------------------------
------------------------------------------------------------------------------
------------------------------------------------------------------------------
------------------------------------------------------------------------------




---17-------------------------------------------------------------------------
-17--17--19-17~~~-------------------------------------------------------------
-------19---------16-19-21-16--16-19-16-14--14-16-13~~~~~-------------------
------------------------------------------------------------------------------
------------------------------------------------------------------------------
------------------------------------------------------------------------------


esta música fica melhor se usarmos Power Chords ou seja tônica, quinta e oitava.

 E     G#    A     C     B     F#    G   Base do Solo  E     Eb    C#
---   ---   ---   ---   ---   ---   ---               ---   ---   ---
---   ---   ---   ---   ---   ---   ---               ---   ---   ---
---   ---   ---   -5-   -4-   ---   ---               -9-   -8-   -6-
-2-   -6-   -7-   -5-   -4-   -4-   -5-               -9-   -8-   -6-
-2-   -6-   -7-   -3-   -2-   -4-   -5-               -7-   -6-   -4-
-0-   -4-   -5-   -x-   -x-   -2-   -3-               -x-   -x-   -x-

O C e o B também podem ser feitos na sexta corda o C casa 8 e o B casa 7
mantendo o mesmo formato dos demais acordes, facilitando a volta.

TOP cifras de Lenny Kravitz

  1. Fly Away (acoustic)
  2. Fly Away Live
  3. Let love rule
  4. You're My Flavor
  5. Mamma Said
  6. Again Solo
  7. I Belong To You
  8. Bank Rober Man
  9. Flowers For Zoe
  10. Believe in Me

Pela Web