Cifras Web
Lenny Kravitz

Love Love Love

Lenny Kravitz

6 acessos

- Intro -
 
D|-------------------------------10----------| 
A|-------------------------------10----------|
G|-------------------------------------------|  7 vezes
D|--7---7---7---7---7---7---7----------------|
A|--7---7---7---7---7---7---7----------------|
D|--7---7---7---7---7---7---7----------------|

D|-------------------------------------------| 
A|-------------------------------------------|
G|-------------------------------------------|  1 vez
D|--7---7---7---7---7---7---7-/-8------------|
A|--7---7---7---7---7---7---7-/-8------------|
D|--7---7---7---7---7---7---7-/-8------------|

- Verso - 
 
D|-------------------------------10----------| 
A|-------------------------------10----------|
G|-------------------------------------------|  4 vezes
D|--7---7---7---7---7---7---7----------------|
A|--7---7---7---7---7---7---7----------------|
D|--7---7---7---7---7---7---7----------------|

D|-------------------------------8-----------| 
A|-------------------------------8-----------|
G|-------------------------------------------|  1 vez
D|--5---5---5---5---5---5---5----------------|
A|--5---5---5---5---5---5---5----------------|
D|--5---5---5---5---5---5---5----------------|

D|-------------------------------7-----------| 
A|-------------------------------7-----------|
G|-------------------------------------------|  1 vez
D|--4---4---4---4---4---4---4----------------|
A|--4---4---4---4---4---4---4----------------|
D|--4---4---4---4---4---4---4----------------|

D|-------------------------------10----------| 
A|-------------------------------10----------|
G|-------------------------------------------|  1 vez
D|--7---7---7---7---7---7---7----------------|
A|--7---7---7---7---7---7---7----------------|
D|--7---7---7---7---7---7---7----------------|

D|-------------------------------------------| 
A|-------------------------------------------|
G|-------------------------------------------|  1 vez
D|--7---7---7---7---7---7---7-/-8------------|
A|--7---7---7---7---7---7---7-/-8------------|
D|--7---7---7---7---7---7---7-/-8------------|

- Refrão -

D|---------------------------------------------------------------------------------------------------| 
A|---------------------------------------------------------------------------------------------------|
G|---------------------------------------------------------------------------------------------------|  
D|--4---4---4---4---4---4---4---4---5---5---5---5---5---5---5---5---7---7---7---7---7---7---7---7----|
A|--4---4---4---4---4---4---4---4---5---5---5---5---5---5---5---5---7---7---7---7---7---7---7---7----|
D|--4---4---4---4---4---4---4---4---5---5---5---5---5---5---5---5---7---7---7---7---7---7---7---7----|

D|-----------------------------------------------------------------------------------------------------------| 
A|-----------------------------------------------------------------------------------------------------------|
G|-----------------------------------------------------------------------------------------------------------|  
D|--9---9---9---9---9---9---9---9---12---12---12---12---12---12---12---12---8---8---8---8---8---8---8---8----|
A|--9---9---9---9---9---9---9---9---12---12---12---12---12---12---12---12---8---8---8---8---8---8---8---8----|
D|--9---9---9---9---9---9---9---9---12---12---12---12---12---12---12---12---8---8---8---8---8---8---8---8----|

D|-------------------------------10----------| 
A|-------------------------------10----------|
G|-------------------------------------------|  2 vezes
D|--7---7---7---7---7---7---7----------------|
A|--7---7---7---7---7---7---7----------------|
D|--7---7---7---7---7---7---7----------------|

- SEQUÊNCIA PARA TOCAR -

Intro
Verso [2 vezes]
Refrão
Verso [2 Vezes]
Refrão
Verso [2 vezes]
Refrão [sem música]
Refrão [2 vezes]
Intro

TOP cifras de Lenny Kravitz

  1. Fly Away (acoustic)
  2. Fly Away Live
  3. Let love rule
  4. You're My Flavor
  5. Mamma Said
  6. Again Solo
  7. I Belong To You
  8. Bank Rober Man
  9. Flowers For Zoe
  10. Believe in Me

Pela Web