Cifras Web
Limp Bizkit

Nobody Like You

Limp Bizkit

5 acessos

Album: Significant Other
Tabbed by Daniel Martin

Verse
G---------------6--------------------------
D----------------------------3-----------
A--4-5--4-4------5-4--5---------------
E--------------------------------------------

Chorus
G-------------------------------------------
D-----------------5--4--------------------
A-4-x-x-4-x-x---------7-6--------------
E------------------------------------------

That's basically it. Listen to song to get the rhythm. The song just repeats 
all this line.
                        x = mute

TOP cifras de Limp Bizkit

  1. Walking Away
  2. Gimme The Mic
  3. Just Like This
  4. Faith Intro
  5. Stinkfinger
  6. The Channel
  7. Behind Blue Eyes
  8. Jump Around
  9. Livin' It Up
  10. 1999

Pela Web