Cifras Web
Liverpool Express

Its A Beautiful Day

Liverpool Express

5 acessos

Okay whilst looking at the 2 other tabs for this song, I noticed that the tab was 
wrong. So here's how I play the song which I find is both easier and better sounding.

   Am

E|-----------0-----------------|
B|--------------1--------------|
G|-------2--------2------------|
D|----2--------------2---------|
A|--0--------------------------|
E|-----------------------------| (x2)


    Am                            Fmaj7

E|-----------0-----------------||-----------0----------------|
B|--------------1--------------||--------------1-------------|
G|-------2--------2------------||-------2--------2-----------|
D|----2--------------2---------||----3--------------3--------|
A|--0--------------------------||--0-------------------------|
E|-----------------------------||----------------------------|

                  It's a beautiful day,

    C                            E7

E|-----------0----------------||----------- 0----------------|
B|--------------1-------------||----------3------------------|
G|-------0--------0-----------||-------1---------------------|
D|----2--------------2--------||----2------------------------|
A|--3-------------------------||--2--------------------------|
E|----------------------------||-----------------------------|

                  I'm feeling so fine,

    Am                            Fmaj7

E|-----------0----------------||-----------0----------------|
B|--------------1-------------||--------------1-------------|
G|-------2--------2-----------||-------2--------2-----------|
D|----2--------------2--------||----3--------------3--------|
A|--0-------------------------||--0-------------------------|
E|----------------------------||----------------------------|

              There's love in the air,

    C                                      E7

E|-----------0----------------||----------- 0---------------|
B|--------------1-------------||----------3-----------------|
G|-------0--------0-----------||-------1--------------------|
D|----2--------------2--------||----2-----------------------|
A|--3-------------------------||--2-------------------------|
E|----------------------------||----------------------------|

                  And you on my mind.

A                 G              C                E
Today's the day I wanna' do the things I gotta' do,
A              G                  C               E     G
And if I get a chance I'd like to do it all with you.

    Am                                    Fmaj7

E|-----------0----------------||-----------0----------------|
B|--------------1-------------||--------------1-------------|
G|-------2--------2-----------||-------2--------2-----------|
D|----2--------------2--------||----3--------------3--------|
A|--0-------------------------||--0-------------------------|
E|----------------------------||----------------------------|

                It's a beautiful day,

    C                                      E7

E|-----------0----------------||----------- 0---------------|
B|--------------1-------------||----------3-----------------|
G|-------0--------0-----------||-------1--------------------|
D|----2--------------2--------||----2-----------------------|
A|--3-------------------------||--2-------------------------|
E|----------------------------||----------------------------|

                   To wear me a smile,

    Am                                    Fmaj7

E|-----------0----------------||-----------0----------------|
B|--------------1-------------||--------------1-------------|
G|-------2--------2-----------||-------2--------2-----------|
D|----2--------------2--------||----3--------------3--------|
A|--0-------------------------||--0-------------------------|
E|----------------------------||----------------------------|

                It's one of those days,

    C                                      E7

E|-----------0----------------||----------- 0---------------|
B|--------------1-------------||----------3-----------------|
G|-------0--------0-----------||-------1--------------------|
D|----2--------------2--------||----2-----------------------|
A|--3-------------------------||--2-------------------------|
E|----------------------------||----------------------------|

              That makes living worthwhile.

A                G          C                   E
Today is like a holiday we used to have from school,
A             G                C               E    G    A
Running to a beach to be the first one in the pool.

         G        C           E         A
It's a beautiful, oh, what a beautiful day,
         G        C           E         A
It's a beautiful, oh, what a beautiful day,
         G        C           E         A
It's a beautiful, oh, what a beautiful day,

         A      G           C        E

    Am                                    Fmaj7

E|-----------0----------------||-----------0----------------|
B|--------------1-------------||--------------1-------------|
G|-------2--------2-----------||-------2--------2-----------|
D|----2--------------2--------||----3--------------3--------|
A|--0-------------------------||--0-------------------------|
E|----------------------------||----------------------------|

                It's a beautiful day,

    C                                      E7

E|-----------0----------------||----------- 0---------------|
B|--------------1-------------||----------3-----------------|
G|-------0--------0-----------||-------1--------------------|
D|----2--------------2--------||----2-----------------------|
A|--3-------------------------||--2-------------------------|
E|----------------------------||----------------------------|

                     I'm happy inside,

    Am                                    Fmaj7

E|-----------0----------------||-----------0----------------|
B|--------------1-------------||--------------1-------------|
G|-------2--------2-----------||-------2--------2-----------|
D|----2--------------2--------||----3--------------3--------|
A|--0-------------------------||--0-------------------------|
E|----------------------------||----------------------------|

                   What more can I say,

    C                                      E7

E|-----------0----------------||----------- 0---------------|
B|--------------1-------------||----------3-----------------|
G|-------0--------0-----------||-------1--------------------|
D|----2--------------2--------||----2-----------------------|
A|--3-------------------------||--2-------------------------|
E|----------------------------||----------------------------|

                  I've nothing to hide.

A                G               C              E
If you have the time I've got so much I wanna' say,
A                G               C       E    G    A
If nobody will listen well I'll say it anyway.

         G        C           E         A
It's a beautiful, oh, what a beautiful day,
         G        C           E         A
It's a beautiful, oh, what a beautiful day,
         G        C
It's a beautiful, oh,


What a beautiful day.


Okay then any questions or anything e-mail *

TOP cifras de Liverpool Express

  1. Dreamin
  2. You Are My Love
  3. Its A Beautiful Day

Pela Web