Cifras Web
Lucas Bonjardim

Fogueira

Lucas Bonjardim

7 acessos

(intro)


                 Bm                    F#m             G     D        A
E|-----------------------------2--------------------------------------------|
B|------------------0-0-0-3-3--------------2-2-0----------------------------|
G|-------------------------------------2-2--------2--4-4-4-4-2--2h4-2-------|
D|--------0-----------------------------------------------------------------|
A|----0h2----4--2-----------------------------------------------------------|
E|--------------------------------------------------------------------------|



                Bm                      F#m              G     D        A
E|------------------------------7-------------------------------------------|
B|------------------0-0-0-3-3---7--------------2-2-0------------------------|
G|----------------------------------------2-2--------2--4-4-4-4-2--2h4-2----|
D|--------0-----------------------------------------------------------------|
A|---0h2-----4--2-----------------------------------------------------------|
E|--------------------------------------------------------------------------|


(riff)
E|----------------|
B|--3-2-0-3-2-0---|
G|-------------2--|
D|--------------4-|  
A|----------------|
E|----------------|

Bm
Não para de chover
F#m               G         D         A
E eu preciso do sol pra lembrar seu calor
Bm
Se eu te magoei
F#m                 G        D    A
Desculpa estou aprendendo o que é amor

(riff 1)

F#                Bm
Nas noites mais escuras
                G               D
Nos bares, nas ruas, tudo é solidão
F#            Bm                 G
Não me deixe sozinho, falta de carinho
            A
Rimam com nova paixão

D                A
Eu quero o seu amor
                  G                D    A
Eu quero ser seu homem, se você quiser
D                 A
Se eu tiver seu amor
             G                 D
Juro não preciso amar outra mulher
           G     A                      D
Não deixe apagar, a fogueira do meu coração

TOP cifras de Lucas Bonjardim

  1. Armagurado
  2. A Vaca Foi Pro Brejo
  3. Furacão
  4. Na hora H
  5. Delícia
  6. Sonhos de Amor
  7. Programa de Fim de Semana
  8. Fogueira
  9. Longe
  10. Amor de Primavera

Pela Web