Cifras Web
Lucas e Guilherme

Deslumbrante

Lucas e Guilherme

4 acessos

Intro:

      Bm                    A          Bm                    A
E|---------------------------------|---------------------------------------|
B|-5/7-5-3-3-5/7-5-3-0/2-----------|-5/7-5-3-3-5/7-5-3-0/2-----3/10--10/12~|
G|--------4------------------------|--------4------------------------------|
D|---------------------------------|---------------------------------------|
A|---------------------------------|---------------------------------------|
E|---------------------------------|---------------------------------------|


Bm
  Ainda estar por vir alguém
            A
Com teu sorriso
                                    G
Que me tire do serio fale o que eu preciso
                                    F#4  F#
Que arranque essa dor que possa me curar

Bm                                  A
  Eu sonho toda noite peço o dia inteiro
                              G
Uma hora é saudade outra desespero
                                    F#4 F#
É fato que eu te amo e não da pra negar

Em
 Você nunca me ouviu
               Bm
Não soube me dizer
                             G
O que acontecia entre eu e você
                                    F#4 F#
Não me deu outra chance para te provar, na na rum na na na

Refrão:
Bm                                     A
  Me perco nesse teu jeito tão deslumbrante

É coisa de outro mundo
             G
É tudo fascinante

Me lembro dos momentos
              F#                   Bm
Me pego a chorar, na na rum na na na
                                    A
Cada lugar que eu olho vejo se te encontro
                                     G
Se me desse outra chance eu estaria pronto
                                    F#                  Bm
Pra te dar o valor que não pude te dar na na rum na na na

Solo:

      Bm                    A          Bm                    A
E|---------------------------------|---------------------------------------|
B|-5/7-5-3-3-5/7-5-3-0/2-----------|-5/7-5-3-3-5/7-5-3-0/2-----3/10--10/12~|
G|--------4------------------------|--------4------------------------------|
D|---------------------------------|---------------------------------------|
A|---------------------------------|---------------------------------------|
E|---------------------------------|---------------------------------------|


Em
 Você nunca me ouviu
               Bm
Não soube me dizer
                             G
O que acontecia entre eu e você
                                    F#4 F#
Não me deu outra chance para te provar, na na rum na na na

Refrão:
Bm                                     A
  Me perco nesse teu jeito tão deslumbrante
É coisa de outro mundo
             G
É tudo fascinante
Me lembro dos momentos
              F#                   Bm
Me pego a chorar, na na rum na na na
                                    A
Cada lugar que eu olho vejo se te encontro
                                     G
Se me desse outra chance eu estaria pronto
                                    F#                  Bm
Pra te dar o valor que não pude te dar na na rum na na na

Bm                                     A
  Me perco nesse teu jeito tão deslumbrante
É coisa de outro mundo
             G
É tudo fascinante
Me lembro dos momentos
              F#                   Bm
Me pego a chorar, na na rum na na na
                                    A
Cada lugar que eu olho vejo se te encontro
                                     G
Se me desse outra chance eu estaria pronto
                                    F#                  Bm
Pra te dar o valor que não pude te dar na na rum na na na

Bm
Ainda estar por vir alguém
            A
Com teu sorriso
                                    G
Que me tire do serio fale o que eu preciso
                                      F#
Que arranque essa dor que possa me curar

( Bm )

TOP cifras de Lucas e Guilherme

  1. Pra Ser Perfeito
  2. Cilada
  3. Diz Que Ama e Me Adora
  4. Deslumbrante
  5. A Mais de Um Ano

Pela Web