Cifras Web
Lucas e Guilherme

Pra Ser Perfeito

Lucas e Guilherme

7 acessos

Intro:

E|---------------------------------------------|
B|-3--3--3--3/5--5--5--5/7--7--7--7/5--5--5----|
G|---------------------------------------------|
D|4--4--4--4/5--5--5--5/7--7--7--7/5--5--5--5--|
A|---------------------------------------------|
E|---------------------------------------------|


( Bm  G  D  A )


E|---------------------------------------------|
B|--------3-----------3-----------3--7-5-3-/0--|
G|4-4-2-4-----4-4-2-4-----4-4-2-4--------------|
D|---------------------------------------------|
A|---------------------------------------------|
E|---------------------------------------------|


Bm
Sou alguém em busca
		    A9
De um motivo pra te esquecer
      Em          G			F#
Mas a cada segundo me encontro mais em você
Bm				       A A4 A
Esse choro no meu rosto não te prova nada
         Em            F#m G
Eu sou apenas mais um
               F#
Que andou na sua estrada

G
É fácil perceber
           G A Bm
Somos melhores juntos

Eu vou te dizer
                 E
Ainda te quero muito
               G
Eu só queria ser
              F#                A
Diferente de tudo que você já viu

Dm                             Bb
E quando é amor a gente não inventa

O que é verdadeiro nunca acaba
F
Só aumenta
		C
To pedindo pra você voltar
Dm
Mesmo em outra vida
		    Bb
Eu sei que vou ser seu

Não, não adianta
			   F
Pra ser perfeito tem que ser
           C     A
Só você e eeeeeu,  só você e eu !

Solo:

E|---------------------------------------------|
B|-3--3--3--3/5--5--5--5/7--7--7--7/5--5--5----|
G|---------------------------------------------|
D|4--4--4--4/5--5--5--5/7--7--7--7/5--5--5--5--|
A|---------------------------------------------|
E|---------------------------------------------|


( Bm  G  D  A )


E|---------------------------------------------|
B|--------3-----------3-----------3--7-5-3-/0--|
G|4-4-2-4-----4-4-2-4-----4-4-2-4--------------|
D|---------------------------------------------|
A|---------------------------------------------|
E|---------------------------------------------|


G
É fácil perceber
           G A Bm
Somos melhores juntos

Eu vou te dizer
                 E
Ainda te quero muito
               G
Eu só queria ser
              F#                A
Diferente de tudo que você já viu

Dm                             Bb
E quando é amor a gente não inventa

O que é verdadeiro nunca acaba
F
Só aumenta
		C
To pedindo pra você voltar
Dm
Mesmo em outra vida
		    Bb
Eu sei que vou ser seu

Não, não adianta
			   F
Pra ser perfeito tem que ser
           C     A
Só você e eeeeeu,  só você e eu !(2x)

TOP cifras de Lucas e Guilherme

  1. Pra Ser Perfeito
  2. Cilada
  3. Diz Que Ama e Me Adora
  4. Deslumbrante
  5. A Mais de Um Ano

Pela Web