Cifras Web
M. Ward

End Of Amnesia Intro

M. Ward

6 acessos

 Standard Tuning 

Guitar 1 (background)

e:-----------------|-----------------|-----------------|-----------------|
B:-----------------|-----------------|-----------------|-----------------|
G:-----------------|-----------------|-----------------|-----------------|
D:------2------2---|------2-------2--|------2-------2--|------2------2---|
A:----2------2-----|----2-------2----|----2-------2----|----2------2-----|
E:--0------0-------|--0-------0------|--0-------0------|--0------0-------|


Guitar 2

e:-----------------|-----------------|-----------------|-----------------|
B:-----------------|-----------------|-6--------6-8----|--8-11-------10--|
G:-7r-------7h9r---|--9h12r------11r-|-7r-------7s9r---|--9s12r------11r-|
D:-----------------|-----------------|-----------------|-----------------|
A:-----------------|-----------------|-----------------|-----------------|
E:-----------------|-----------------|-----------------|-----------------|




e:-----------------|-----------------|-----------------|-----------------|
B:--10-------------|--10-------------|--12-------------|--10-------------|
G:--------11-------|--------11-------|--------11-------|--------11-------|
D:--------------0--|--------------0--|--------------0--|--------------0--|
A:-----------------|-----------------|-----------------|-----------------|
E:-----------------|-----------------|-----------------|-----------------|




e:-----------------|-----------------|-----------------|-----------------|
B:-----------------|-----------------|-----------------|-----------------|
G:-11h12p11--------|-9-------11------|-9---------------|-----------------|
D:-----------0-----|---10-------10---|---10------------|-----------------|
A:-----------------|------0--------0-|------0----------|-----------------|
E:-----------------|-----------------|-----------------|-----------------|


>_< and im stuck >_<

e:-----------------|-----------------|-----------------|-----------------|
B:-----------------|-----------------|-----------------|-----------------|
G:-----------------|-----------------|-----------------|-----------------|
D:-----------------|-----------------|-----------------|-----------------|
A:-----------------|-----------------|-----------------|-----------------|
E:-----------------|-----------------|-----------------|-----------------|

please help me out i love this song but cant get the rest figured'
if you are willing to help me out please let me know, i'd appreciate it.

Shawn Nicol *

Top cifras de M. Ward

  1. Chinese Translation Intro
  2. Chinese Translation
  3. Ill Be Yr Bird
  4. End Of Amnesia Intro
  5. Carolina
  6. Duet For Guitars 3

Pela Web