Cifras Web
Madness

Benny Bullfrog

Madness

11 acessos

     tabbed by:yury lizunov
g-------------------------
d-5--0--5--0--5--0--5--0--
a-------------------------
e-------------------------

g-2-----2-----
d----2-----2--
a-------------
e-------------

g-4--2--4--2--4--2--0-3-2-1-0-
d-----------------------------
a-----------------------------
e-----------------------------

g-------------------------
d-5--0--5--0--5--0--5--0--
a-------------------------
e-------------------------

g-2-----2-----
d----2-----2--
a-------------
e-------------

g-4--2--4--2--4--2--0-3-2-1-0-
d-----------------------------
a-----------------------------
e-----------------------------


g---------------0---0-----------7---7---
d-4-4---7---7---------1-2-----4---4---4-
a-------------------------4-5-----------
e-----5---5---2---2---------------------

Top cifras de Madness

  1. Baggy Trousers
  2. It Must Be Love
  3. Night Boat To Cairo
  4. One Step Beyond
  5. Benny Bullfrog
  6. Driving In My Car
  7. House Of Fun
  8. Our House

Pela Web