Cifras Web
Maldita

Anatomia

Maldita

20 acessos

BAIXO:


G|------------------------------------------------------------------------------|
D|------------------------------------------------------------------------------|
A|------------------------------------------------------------------------------|
E|----5-------5--------3------------3---------2---------2-----------1-----------|



G|-----------------------------------------------------------------------------|
D|-----------------------------------------------------------------------------|
A|-----------------------------------------------------------------------------|
E|----1\5-------5-------8---------8----------2---------2----------1------------|


SOLO DA GUITARRA:

e|--------------------------------------------------------------------------------|
B|-------1------1--------1---------1---------1---------1----------1---------1-----|
G|--2------2-------2---------2---------2---------2----------2---------2-----------|
D|--------------------------------------------------------------------------------|
A|--------------------------------------------------------------------------------|


segue com baixo e guitarra:

Eu me fechei na escuridão
Sangrento era o corpo em minhas mãos
Comprei a arma só para te assustar
Minha intenção não era de te matar
Eu a arrastei até o cemitério
Seus olhos brancos eram cadavéricos
Me fechei na escuridão
Eu lavei o sangue seco das minhas mãos

REFRÃO
(A5  G5    F#5     F5)

O que eu sinto é algo tão intenso
Eu precisava saber como ela era por dentro
O que eu sinto é algo tão intenso
Só queria saber como ela era por dentro

segue baixo e guitarra:

Sinto o remorso quer me sufocar
O cheiro de morte infestava o lugar
Comprei a arma só para te assustar
Minha intenção não era de te matar
Eu a arrastei até o cemiterio
Seus olhos brancos era cadavéricos
Mostrei a puta o que se cava, enterra
Joguei ela no chão e abri suas pernas

REFRÃO
(A5  G5    F#5     F5)
O que eu sinto é algo tão intenso
Eu precisava saber como ela era por dentro
O que eu sinto é algo tão intenso
Só queria saber como ela era por dentro

(A5  G5    F#5     F5)
Eu vou amar você para sempre
Eu sei, eu sou doente
Eu vou amar você para sempre
Não precisa me dizer, eu sei que eu sou doente

(A5  G5    F#5     F5)
Eu sempre achei você demais
O meu problema era com seus pais
Mostrei a puta o que se cava, enterra
Joguei ela no chão, e abri suas pernas

(A5  G5    F#5     F5)
Sinto o remorso quer me sufocar
O cheiro de morte infestava o lugar
Seu nome era necrofilia
Minha percepção de amor é doentia
Minha percepção é doentia

TOP cifras de Maldita

  1. Malachi
  2. Encontro de Nelson Rodrigues Com Marquês de Sade No Inferno
  3. Anatomia
  4. Passivo/agressivo
  5. Crepúsculo
  6. Que Eu Odeio

Pela Web