Cifras Web
Metallica

Ecstasy of Gold

Metallica

38 acessos

 h  - hammer on
 p  - pull off
 /  - bend up
 \  - bend down
 /s - slide up
 \s - slide down

(afinação 1/2 tom abaixo)

0:35

D|---------------------------------------------|
A|-10-----8------------------------------------|
F|----9-----9---7-9-7----9-7----9-7------------|
C|--------------------7------7------7---7-9-7--|
G|---------------------------------------------|
D|---------------------------------------------|


0:56

D|--------7----------------------------|
A|-10-------8---8-5-8-------5-8-----5--|
F|----9---------------7-5-7-----5-7----|
C|-------------------------------------|
G|-------------------------------------|
D|-------------------------------------|


1:19

D|-------------------------------------------|
A|-------8-----------------------------------|
F|---9-----9---7-9-7---9-7---9-7-------------|
C|-7-----------------7-----7-----7-9--7-9-7--|
G|-------------------------------------------|
D|-------------------------------------------|


1:28

D|-------7----------------------------|
A|---------8---8-5-8-------5-8-----5--|
F|---9---------------7-5-7-----5-7----|
C|-7----------------------------------|
G|------------------------------------|
D|------------------------------------|


1:37

D|--------------------------------------------7-8/s10-8--10/\8---|
A|-------8--------------------------10-8----9--------------------|
F|---9-----9---7-9-7---9-7-------10-------9----------------------|
C|-7-----------------7-----7--10---------------------------------|
G|---------------------------------------------------------------|
D|---------------------------------------------------------------|


1:50

D|----------------------------------------------------------------------8------8------------|
A|-10-----8--------------------------------------------8-----------10-----10-----10-8-10\s--|
F|----9-----9---7-9-7---9-7---9-7------------------9-----9---7---7--------------------------|
C|--------------------7-----7-----7-9--7-9-7-----7-------------7----------------------------|
G|------------------------------------------------------------------------------------------|
D|------------------------------------------------------------------------------------------|


2:20

D|----------------------------------------------------------------------------|
A|-------8--8h10p8-------8h10-----------10---12/\10---12/-12/-10--12/-12/-10--|
F|---9-------------9-7--------9-----7-7---------------------------------------|
C|-7-------------------7------------------------------------------------------|
G|----------------------------------------------------------------------------|
D|----------------------------------------------------------------------------|


2:32

D|----------------7/--7h8p7-----7-----8-----8--10--12--7------------------------------|
A|-----8h10p8---------------8-----8-----8-----------------9---12/\-10--12/\-10--12/\--|
F|---9--------9-----------------------------------------------------------------------|
C|-7----------------------------------------------------------------------------------|
G|------------------------------------------------------------------------------------|
D|------------------------------------------------------------------------------------|


2:44

D|------------------------------------------------------|
A|---------7/---9-7-9-7\s-----10---12/-12/-12/-12/-12/--|
F|---9\s---7/---9-7-9-7\s---7---------------------------|
C|-7----------------------------------------------------|
G|------------------------------------------------------|
D|------------------------------------------------------|



D|-------------------------------------------------------------------------|
A|--12/-10-10--12/-10-10--13/-11-11--13/-11-11--14/-12-12--14/-12-12--16/--|
F|-------------------------------------------------------------------------|
C|-------------------------------------------------------------------------|
G|-------------------------------------------------------------------------|
D|-------------------------------------------------------------------------|


2:56

D|-------------------------------------------7--10--8--12--12/\--10--17--|
A|---------------------------------10-8----9-----------------------------|
F|--7-9-7----9-7----9-7---------10-------9-------------------------------|
C|--------7------7------7--7-10------------------------------------------|
G|-----------------------------------------------------------------------|
D|-----------------------------------------------------------------------|


3:08 ( lots of strums here on the begining )

D|--------------------------------------------------|
A|-------------------------17-17-17-17-17-17-17-17--|
F|-14-14-14-14-14-14-14-14--------------------------|
C|--------------------------------------------------|
G|--------------------------------------------------|
D|--------------------------------------------------|



D|--15/-12-12--15/-15/-12-12--15/-15/-12-12--15/-12-12--15/-15/-12-12---15h17p15--|
A|--------------------------------------------------------------------------------|
F|--------------------------------------------------------------------------------|
C|--------------------------------------------------------------------------------|
G|--------------------------------------------------------------------------------|
D|--------------------------------------------------------------------------------|


3:14 ( the 2nd part is much longer and from time to time it has bends on the 20th fret
on the last one below )

D|------------------------------------------------17-20-17------17-20-17------17-|
A|-13-10------13-10------13-10------13-10------------------20------------20------|
F|-------12---------12---------12---------12-------------------------------------|
C|-------------------------------------------------------------------------------|
G|-------------------------------------------------------------------------------|
D|-------------------------------------------------------------------------------|



20-17----17-20/-17----|
----20------------20--|
----------------------|
----------------------|
----------------------|
----------------------|


3:23 ( not sure on this part, please someone correct me )

D|-20---15-15---17-17---12-12---15-15--------------------------------------------|
A|--------------------------------------12-13-12-13------------------------------|
F|------------------------------------------------------5-7-7/\-----5-7-7/\--5-5-|
C|----------------------------------------------------7-----------7--------------|
G|-------------------------------------------------------------------------------|
D|-------------------------------------------------------------------------------|



-----------------------------|
-----------------------------|
-----------------------------|
7-7---9/--7h9p7h9p7h9p7h9p7--|
-----------------------------|
-----------------------------|


3:31

D|-10-12-10------12-10------12-10------10-12-10------12-10------12-10------|
A|----------10---------10---------10------------10---------10---------10---|
F|-------------------------------------------------------------------------|
C|-------------------------------------------------------------------------|
G|-------------------------------------------------------------------------|
D|-------------------------------------------------------------------------|


3:37
D|------------------------13--12-----12----12--16--17\s--|
A|--------10--13--12--15----------------13---------------|
F|-----9-------------------------------------------------|
C|-10----------------------------------------------------|
G|-------------------------------------------------------|
D|-------------------------------------------------------|

TOP cifras de Metallica

  1. The Unforgiven
  2. To live is to die
  3. Nothing Else Matters
  4. The Ecstasy Of Gold
  5. Ecstasy of Gold
  6. The Unforgiven II
  7. The Memory Remains
  8. Master Of Puppets
  9. Fade To Black
  10. Ronnie

Pela Web