Cifras Web
Metallica

It's Electric

Metallica

6 acessos

INTRO 
|------------|---------------------------------|---------------------------------| 
|------------|---------------------------------|---------------------------------| 
|------------|---------------------------------|---------------------------------| 
|------------|--2---2---2---2---2---2---2---2--|--2---2---2---2---2---2---2---2--| 
 
|---------------------------------|---------------------------------|-----------------| 
|---------------------------------|---------------------------------|--4-----4-----4--| 
|---------------------------------|------------------------------O--|--2-----2-----2--| 
|--2---2---2---2---2---2---2---2--|--2---2---2---2---2---2---2------|-----------------| 
 
|------------|------------------------|------------| 
|------------|------------------------|------------| 
|------------|------------------------|------------| 
|--2-----5/--|--/7-----O-----O-----7--|--5\-----O--| 
 
1st, 2nd verses bass fig. 1 (5times) 
 1. I'm gonna be a rock and roll star gotta groove from night to day 
  
 bass fig. 1  (end bass fig. 1)            
|-----------|--------------------|------------| 
|*----------|--------------------|------------| 
|*----------|--------------------|------------| 
|--2-----5--|--O-----O-----------|------------| 
 
   I'm gonna      be    right my friend   I'm      gon  na   push     it 
|--------------------|-----------------------|-----------------------------| 
|--------------------|-----------------------|-----------------------------| 
|--------------------|-----------------------|-----------------------------| 
|--2------------2/5--|--O-----------------O--|--2---------------2-----2/5--| 
 
                                   oh 
   through                        (oh) 
|--------------------------------------| 
|------------------------------2-H-4---| 
|--------------------------------------| 
|--O--------------/5--P--O-------------| 
 
% Chorus                                                     oh      yeah 
|-----------------------------|-------------------------|-------------------------------| 
|--4---4---4---4---2---2---4--|--2---2---4-----4-----2--|--4-----4---4---4---2---2---4--| 
|-----------------------------|-------------------------|-------------------------------| 
|-----------------------------|-------------------------|-------------------------------| 
 
                  it's e-      lec   tric 
|---------------------------|-------------------------------|-------------------------| 
|--2---2---4-----4-----2----|--4-----4---4---4---2---2---4--|--2---2---4-----4-----2--| 
|---------------------------|-------------------------------|-------------------------| 
|---------------------------|-------------------------------|-------------------------| 
 
  (2nd time substitute BASS FILL 1)                        it's e 
|-----------------------------------|-----------------------------| 
|--4-----4---4---4---2---2---4------|--2---2---2---4---2----------| 
|-----------------------------------|----------------------4------| 
|-----------------------------------|--------------------------O--| 
 
   lec           tric 
|-------------------------------|---------------------------------| 
|-------------------------------|------------------4---2----------| 
|-------------------------------|--------------------------4------| 
|--2-----2---2---2---2---2---2--|--2---2---2---2---------------O--| 
 
                                               yeah       it's e   TO CODA 
|-------------------------------|---------------------------------| 
|-------------------------------|------------------------------2--| 
|-------------------------------|--------------------------4------| 
|--2-----2---2---2---2---2---2--|--2---2---2---2---2---2----------| 
 
   lec   tric 
        (tric) 
|--------------------------------|-----------------------------| 
|--4-----4---4---4---2---2---4---|--2---2---4---4---4---4---2--| 
|--------------------------------|-----------------------------| 
|--------------------------------|-----------------------------| 
 
BASS FILL 1 
|-------------------------------|-------------------------------------| 
|--4-----4---4---4---2---2---2--|--2-H-4---2-------2------------------| 
|-------------------------------|--------------4-------4---3---2------| 
|-------------------------------|----------------------------------O--| 
     
                             yeah                       it's e     lec   tric 
|---------------------------------|-----------------------------|------------------| 
|--4-----4---4---4---2---2---4----|--4---2---2---4---2----------|--4-----4-----4---| 
|---------------------------------|----------------------2-H-4--|--2-----2-----2---| 
|---------------------------------|-----------------------------|------------------| 
 
1________________________________________________ 2_______________________________ 
   woh                yeah 
|-----------|------------------|-----------------|------------|------------------| 
|-----------|------------------|----------------*|------------|------------------| 
|-----------|------------------|----------------*|------------|------------------| 
|--2-----5/-|--/7-----O-----7--|--7---7-----7\O--|--2-----5/--|--/7-----O-----7--| 
 
         woh 
|-------------| 
|-------------| 
|-------------| 
|--7-----5\2--| 
 
GUITAR SOLO 
|-----------------------------|---------------------------------|------------------------------| 
|-----------------------------|---------------------------------|------------------------------| 
|-----------------------------|---------------------------------|------------------------------| 
|--2---2---2---2---2---2---2--|--2---2---2---2---2---2---2---O--|--2-----2---2---2---2---2---2-| 
 
|---------------------------------|-------------------------------| 
|---------------------------------|-------------------------------| 
|---------------------------------|-------------------------------| 
|--2---2---2---2---2---2---2---O--|--2-----2---2---2---2---2---2--| 
 
|---------------------------------|-------------------------------| 
|---------------------------------|-------------------------------| 
|---------------------------------|-------------------------------| 
|--2---2---2---2---2---2---2---O--|--2-----2---2---2---2---2---2--| 
 
|---------------------------------|----------------------------------| 
|---------------------------------|----------------------------------| 
|---------------------------------|----------------------------------| 
|--2---2---2---2---2---2---2---5/-|--/7---7---7---7---6---6---6---6--| 
 
|---------------------------------|---------------------------------| 
|---------------------------------|---------------------------------| 
|---------------------------------|---------------------------------| 
|--5---5---5---5---4---4---4---4--|--7---7---7---7---6---6---6---6--| 
 
|---------------------------------|-----------------------------| 
|---------------------------------|-----------------------------| 
|---------------------------------|-----------------------------| 
|--5---5---5---5---4---4---4---2--|--2---2---2---2---2---2---2--| 
 
|---------------------------------|-------------------------------| 
|---------------------------------|-------------------------------| 
|---------------------------------|-------------------------------| 
|--2---2---2---2---2---2---2---O--|--2-----2---2---2---2---2---2--| 
 
|---------------------------------|-------------------------------| 
|---------------------------------|-------------------------------| 
|---------------------------------|-------------------------------| 
|--2---2---2---2---2---2---2---O--|--2-----2---2---2---2---2---2--| 
 
|---------------------------------|-----------------|-------------------|--------| 
|---------------------------------|-----------------|-------------------|--------| 
|---------------------------------|--2-----O--------|----------------O--|--------| 
|--2---2---2---2---2---2---2---O--|--------------2--|--O-----O---2------|--------| 
 
|---------------------------------|-----------------------------|  play 4 times 
|*--------------------------------|----------------------------*| 
|*--------------------------------|----------------------------*| 
|--O-H-2---2---2---2---2---2---2--|--2---2---2---2-----2-----2--| 
 
3rd verse 
 3.I stop...                             on      amber... 
|---------------------------------|---------------------------------| 
|---------------------------------|---------------------------------| 
|---------------------------------|---------------------------------| 
|--O-H-2---2---2---2---2---2---2--|--2---2---2---2---2---2---2---2--| 
 
               paves my...                      (end BASS FIg. 2) 
|---------------------------------|-----------------------------| 
|---------------------------------|-----------------------------| 
|---------------------------------|-----------------------------| 
|--2---2---2---2---2---2---2---2--|--2---2---2---2-----2-----2--| 
 
w/BASS FIG. 2 
  I'm gonna...   my friend... 
|--------------|------------| 
|--------------|------------| 
|--------------|------------| 
|--------------|------------| 
 
D.S. al CODA 
      it  in   a   rock...           show      oh 
                                              (oh)  
|---------------------------------|-----------------------------| 
|---------------------------------|--------------------------4--| 
|---------------------------------|-----------------------------| 
|--2---2---2---2---2---2---2---2--|--2-----2---2/5---O---O---2--| 
 
CODA 
   lec   tric                                                                            yeah     
        (tric) 
|-------------------------------|-----------------------------|------------------------------| 
|--4-----4---4---4---2---2---4--|--2---2---2---4---2----------|------------------------------| 
|-------------------------------|----------------------4------|------------------------------| 
|-------------------------------|--------------------------O--|--2-----2---2---2---2---2---2-| 
 
                        it's   e     lec      tric 
|---------------------------------|-------------------------------| 
|------------------4---2----------|-------------------------------| 
|--------------------------4------|-------------------------------| 
|--2---2---2---2---------------O--|--2-----2---2---2---2---2---2--| 
 
                                                                             yeah    it's  e 
|---------------------------------|-------------------------------|---------------------------| 
|------------------------------2--|--4-----4---4---4---2---2---4--|--2---2---4-----2-------2--| 
|--------------------------4------|-------------------------------|--------------------4------| 
|--2---2---2---2---2---2----------|-------------------------------|---------------------------| 
 
   lec   tric 
        (tric) 
|-------------------------------|-----------------------------|-------------------------------| 
|--4-----4---4---4---2---2---4--|--2---2---2---4---2----------|-------------------------------| 
|-------------------------------|----------------------4------|-------------------------------| 
|-------------------------------|--------------------------O--|--2-----2---2---2---2---2---2--| 
 
                           it's e    lec   tric        woh                  woh 
|---------------------------------|-----------------|-------------|------------------| 
|------------------4---2----------|--4-----4-----4--|-------------|------------------| 
|--------------------------4------|--2-----2-----2--|-------------|------------------| 
|--2---2---2---2---------------O--|-----------------|--2/5--------|--/7-----O-----7--| 
 
     yeah 
|--------------|--------------| 
|--------------|--------------| 
|--------------|--------------| 
|--(7)\O-------|--2-----(2)\--| 
 
       additional lyrics 
  2. I stop on red but leave on amber 
     Danger paves my way 
     I'm gonna make it my friend 
     Gonna make it today 
     Gonna get this dust from my heels 
     Down the highway I go 
     Gonna get the stars from my brow 
     Make it in a rock'n'roll show

TOP cifras de Metallica

  1. Nothing Else Matters
  2. The Unforgiven
  3. To live is to die
  4. The Ecstasy Of Gold
  5. The Unforgiven II
  6. Ecstasy of Gold
  7. The Memory Remains
  8. Master Of Puppets
  9. Ronnie
  10. Fade To Black

Pela Web