Cifras Web
Metallica

The Memory Remains

Metallica

35 acessos

tune all guitars down 1/2 step
Main riff pt1                  Main riff pt2             Main riff pt3

Db----------------5-7h8p7-5--  -----------5-7h8p7-5-8~~  ---------------------
Ab------7~~5-7-7------------7  --7~~5-7-7--------------  --7~~5-7-7--7-5------
Eb--0-0----------------------  0-----------------------  0---------------5-3-0

                                                                   pm........
Main riff end

Db--------------5-7h8p7-5----5---4--
Ab----7~~5-7-7-----------------2----
Eb--0----------------------3-------0


The main riff is layed out in 3 patterns, but is the same basic riff:
end of chorus (no lyrics): part1, part 1, end (muted scratch)
first part of verse:       part1, part 2, end
second part of verse:      part2, part 3, end



Db--7/9---9--7/9---9--7/9---9-----------7/9---9--7/9---9--7/9-9---
Ab--5/7---7--5/7---7--5/7---7--7\5-7\5--5/7---7--5/7---7--5/7-7--5
Eb-----0-0------0-0------0-0---5\3-5\3-----0-0------0-0----------3

      pm..      ...      ...             ...      ...
chorus "Fortune fame, mirror vain, gone insane, but the memory remains"



Db--2---4---5---2-4-2
Ab--2---4---5---0-2-2
Eb--0---2---3-------0

during Marianne Faithful's "Ey ya ya yah" part.



Db--5-5-5-5-5-5-5-5-5-5-5-5
Ab--5-5-5-5-5-5-5-5-5-5-5-5
Eb--3-3-3-3-3-3-3-3-3-3-3-3

   pm......................
The song seems to end, then "Dust to Dust..."

                    ^

eb--3-3-3-3-0-0-3-5-7
Bb------------------7
Gb-------------------
Db-------------------
Ab-------------------
Eb-------------------

end solo (I'll figure the rest out later when I hear the whole song)

The song ends with Marianne Faithful saying "Say yes.  But please stay away."

TOP cifras de Metallica

  1. The Unforgiven
  2. To live is to die
  3. Nothing Else Matters
  4. The Ecstasy Of Gold
  5. Ecstasy of Gold
  6. The Unforgiven II
  7. The Memory Remains
  8. Master Of Puppets
  9. Fade To Black
  10. Ronnie

Pela Web