Cifras Web
Metallica

The Unforgiven

Metallica

47 acessos

Dedilhado:

(Guitarra Base)

E|---------------------------------------------------
B|-0---------0-------0-------0-------1---------------
G|-----2-------2-------2-------2-------2-------------   (4x)
D|-------2-------2-------2-------2-------2-----------
A|-0-------------------------------------------------
E|---------------------------------------------------



E|---------------------------------------------------
B|-0-------0-------0-------1-------1-----------------
G|---2-------2-------2-------2-------2---------------
D|-----2-------2-------2-------2-------2-------------
A|-0-------------------------------------------------
E|---------------------------------------------------



E|---------------------------------------------------
B|-0-------0-------1-------1-------1-----------------
G|---2-------2-------2-------2-------2---------------
D|-----2-------2-------2-------2-------2-------------
A|-0-------------------------------------------------
E|---------------------------------------------------



E|---------------------------------------------------
B|-0-------0-------0-------1-------1-----------------
G|---2-------2-------2-------2-------2---------------
D|-----2-------2-------2-------2-------2-------------
A|-0-------------------------------------------------
E|---------------------------------------------------



E|---------------------------------------------------
B|-0-------0-------1-------1-------1-----------------
G|---2-------2-------2-------2-------2---------------
D|-----2-------2-------2-------2-------2-------------
A|-0-------------------------------------------------
E|---------------------------------------------------


Intro 2:

(Guitarra Base)

E|---------------------------------------------------
B|-------0-1---1---1-1-0-----0-----------------------
G|-----2---0--------------0--0--0--2-2h4-------------
D|---2-----2--------------------2--2-2---------------
A|-0-------3-3---3-----------------------------------
E|------------------------3-----0--------------------



E|---------------0---0-0-----------------------------
B|-------0--1------------3-0--0----------------------
G|-----2----0--------------0--0--1--1---4p1--2h4-----
D|---2------2--------------------2-------------------
A|-0--------3--3---3---------------------------------
E|-------------------------3-----0------------------



E|---------------------------------------------------
B|-0---------0-------0-------0-------1---------------
G|-----2-------2-------2-------2-------2-------------
D|-------2-------2-------2-------2-------2-----------
A|-0-------------------------------------------------
E|---------------------------------------------------


Intro 1:

(Guitarra Solo)

E|---------------------------------------------------
B|---------------------------------------------------
G|---2--4--4h5--5--4--2-----2--4--4h5---5--2---------   (2x)
D|---------------------------------------------------
A|---------------------------------------------------
E|---------------------------------------------------


(Variação)

E|---------------------------------------------------
B|---------------------------------------------------
G|---2--4--4h5--5--4--2~----2--4--4h5---5--2~--------
D|---------------------------------------------------
A|--0---------------------0--------------------------
E|---------------------------------------------------


Intro 2:

(Guitrarra Solo)

E|---------------------------------------------------
B|---------------------------------------------------
G|-2--4--4h5--4h5--5---5--4-----4\---2--2h4----2-----
D|--------------------------5---5\2------------------
A|---------------------------------------------------
E|---------------------------------------------------



E|---------------------------------------------------
B|------------3/5--5---5\3---------------------------
G|-2--4--4h5---------------4---4\1--1-4\1--2-4-2-----
D|-----------------------------5\2-------------------
A|---------------------------------------------------
E|---------------------------------------------------


Riff 1:

(Parte 1)

E|---------------------------------------------------
B|---------------------------------------------------
G|------------------------12-12-11-11----------------
D|-12--10--9-10---9--------0--0--0--0--10--10--------
A|--0---0--0--0--10---------------------0---0---0-0--
E|----------------0---0-0----------------------------


(Parte 2)

E|---------------------------------------------------
B|---------------------------------------------------
G|-------------------------12-12-11-11---------------
D|-12-12-10--9-10---9-------0--0--0--0--10--10-------
A|--0--0--0--0--0--10--------------------0---0--0-0--
E|------------------0--0-0---------------------------


(Riff 1)
New blood joins this earth
And quickly he's subdued
Through constant pained disgrace
The young boy learns their rules

With time, the child draws in
This whipping boy done wrong
Deprived of all his thoughts
The young man struggles on and on, he's known
(Parte 3)

E|---------------------------------------------------
B|---------------------------------------------------
G|---------------------------------------------------
D|-10p0-----9p0-----7p0-----5p0-----5----------------
A|------0-0-----0-0-----0-0-----0-0-3--3h5-3---5-----
E|-------------------------------------------5-3-----


(Parte 4)

E|---------------------------------------------------
B|---------------------------------------------------
G|---------------------------------------------------
D|-10p0-----9p0-----7p0-----5p0-----5----------------
A|------0-0-----0-0-----0-0-----0-0-3--3h5-3---5-2---
E|-------------------------------------------5-3-0---


A vow unto his own
That never from this day
His will they'll take away

(Intro 2 - Solo)
What I've felt
What I've known
Never shined through in what I've shown
Never be
Never see
Won't see what might have been

What I've felt
What I've known
Never shined through in what I've shown
Never free
Never me
So I dub the Unforgiven

(Riff 1)
They dedicate their lives
To running all of his
He tries to please them all
This bitter man he is
Throughout his life the same
He's battled constantly
This fight he cannot win
A tired man they see no longer cares

Riff 1: (Parte 3 e Parte 4)

The old man then prepares
To die regretfully
That old man here is me

(Intro 2 - Solo)
What I've felt
What I've known
Never shined through in what I've shown
Never be
Never see
Won't see what might have been

What I've felt
What I've known
Never shined through in what I've shown
Never free
Never me
So I dub the Unforgiven
Solo 1:

(Parte 1)

E|---------------------------------------------------
B|---------------------------------------------------
G|---4--5--7---5--4h5p4-------4----------------------
D|-7---------------------7------5--5h7~--------------
A|---------------------------------------------------
E|---------------------------------------------------


(Parte 2)

E|-0--0-0-0-0-0-0-0-0-0------------------------------
B|-0--1-1/3-3/5-5\3-3\1--1h3-------------------------
G|---------------------------------------------------
D|---------------------------------------------------
A|---------------------------------------------------
E|---------------------------------------------------


(Parte 3)

E|---------------------------------------------------
B|-8/10\8---7----------------------------------------
G|-7/-9\7---7---7h9-7------7-------------------------
D|--------------------10-9----9----------------------
A|------------------------------10-------------------
E|---------------------------------------------------


(Parte 4)

E|---------------------------------------------------
B|---------------------------------------------------
G|---------------------5-----------------------------
D|-----------------5-----5---5h7~--------------------
A|------3-5--6--7------------------------------------
E|-3--5----------------------------------------------


(Parte 5)

E|---------------------7------7-------10-------------
B|-8--7h8p7----7-8--10---8-------8--8----8-----------
G|----------9----------------------------------------
D|---------------------------------------------------
A|---------------------------------------------------
E|---------------------------------------------------


(Parte 6)

E|------12-----------14-----------15--15b17----------
B|-8/10----10--10/12----12--12/14---14---------------
G|---------------------------------------------------
D|---------------------------------------------------
A|---------------------------------------------------
E|---------------------------------------------------


Solo 2:

(Guitarra Base)

(Parte 1)

E|-----------------------------------------------------
B|-----------------------------------------------------
G|----------------2--2--2--2---------------------------
D|-2-2---5--------0--0--0--0---2--2--------------------
A|-0-0---3-2--2----------------0--0--------------------
E|---------0--0----------------------------------------


(Parte 2)

E|----------------------------------|------------------
B|----------------------------------|------------------
G|----------------2--2--2--2--------|---4b5r4b5r4------
D|-2-2-2-5--------0--0--0--0---2-2--|------------------
A|-0-0-0-3-2--2----------------0-0--|------------------
E|---------0--0---------------------|------------------


(Guitarra Solo)

(Parte 1)

E|---------------------------------------------------
B|-7b8--7b8------------------------------------------
G|-7b9--7b9--5---------------------------------------
D|-------------7~--7b9r7--5--------------------------
A|----------------------------7--5---5----------3b4--
E|---------------------------------8----8-5-3-5------


(Parte 2)

E|---------------------------------------------------
B|---------------------------------------------------
G|-----5-7---5-7-9---7-9-11---9-11-12---11-12-14-----
D|-/7------------------------------------------------
A|---------------------------------------------------
E|---------------------------------------------------


(Parte 3)

E|---------------------------------------------------
B|-15---------13---------15--------------------------
G|----14--14-----14--14------14----------------------
D|---------------------------------------------------
A|---------------------------------------------------
E|---------------------------------------------------


(Parte 4)

E|---------------------------------------------------
B|-20b22--20b22--20b22r20~---20b22r20--17------------
G|---------------------------------------------------
D|---------------------------------------------------
A|---------------------------------------------------
E|---------------------------------------------------


(Parte 5)

E|-20b23--20b23r20---20b23r20------------------------
B|---------------------------------------------------
G|---------------------------------------------------
D|---------------------------------------------------
A|---------------------------------------------------
E|---------------------------------------------------


(Parte 6)

E|-20-20----20p17----17------------------------------
B|----------------20-----20b22--------10-------------
G|--------------------------------/9-----------------
D|---------------------------------------------------
A|---------------------------------------------------
E|---------------------------------------------------


(Parte 6 - Variação)

E|-17-20-17h20p17----17------------------------------
B|----------------20-----20b22~-------10-------------
G|--------------------------------/9-----------------
D|---------------------------------------------------
A|---------------------------------------------------
E|---------------------------------------------------


(Parte 7)

E|-10p9----9-----------------------------------------
B|------12---10-12--8\7---7--------------------------
G|----------------------9---9p7\5--7p5\4--5p4\2~-----
D|---------------------------------------------------
A|---------------------------------------------------
E|---------------------------------------------------


(Parte 7 - Variação)

E|-10p9----9-----------------------------------------
B|------12---10-12--8\7---7--------------------------
G|----------------------9---h9p7\5h7p5\4h5p4\2~------
D|---------------------------------------------------
A|---------------------------------------------------
E|---------------------------------------------------


(Parte 8)

E|----------12-------12-------12-------12------------
B|-------13----13-------13-------13-------13---------
G|-/14------------14-------14-------14-------14------
D|---------------------------------------------------
A|---------------------------------------------------
E|---------------------------------------------------


(Parte 9)

E|-12-------12-------12------------------------------
B|----13-------13-------13---------------------------
G|-------14-------14-------14~--19b21--19b21r19--17--
D|---------------------------------------------------
A|---------------------------------------------------
E|---------------------------------------------------


(Parte 10)

E|----------------17--19--20-19-17-19-17h19p17-------
B|-20b22-20b22~--------------------------------20b22-
G|---------------------------------------------------
D|---------------------------------------------------
A|---------------------------------------------------
E|---------------------------------------------------


(Parte 11)

E|-17------------------------------------------------
B|----20-17-------20-17------------------------------
G|----------19b21-------19-19b21r19p17--19b21r19p17--
D|---------------------------------------------------
A|---------------------------------------------------
E|---------------------------------------------------


(Parte 12)

E|---------------------------------------------------
B|----------------------20---18h20p18--17---18-17----
G|-19b21--19b21r19---17------------------------------
D|---------------------------------------------------
A|---------------------------------------------------
E|---------------------------------------------------


(Intro 2 - Solo)
What I've felt
What I've known
Never shined through in what I've shown
Never be
Never see
Won't see what might have been

What I've felt
What I've known
Never shined through in what I've shown
Never free
Never me
So I dub the Unforgiven
Solo Final:

(Frase 1)

E|-------------3-3h5~-5/7--7h8-----------------------
B|---------3/5---------------------------------------
G|-2-4-4h5-------------------------------------------
D|---------------------------------------------------
A|---------------------------------------------------
E|---------------------------------------------------



E|---------------------------------------------------
B|-3/5-5-5\3-3---------------------------------------
G|-------------2/4-5---------------------------------
D|---------------------------------------------------
A|---------------------------------------------------
E|---------------------------------------------------



E|---------------------------------------------------
B|-3/5-5-5\3-3---------------------------------------
G|-------------2/4\2---------------------------------
D|---------------------------------------------------
A|---------------------------------------------------
E|---------------------------------------------------


Never free
Never me
So I dub the Unforgiven
You labeled me
I'll label you
So I dub the Unforgiven
Never free
Never me
So I dub the Unforgiven

TOP cifras de Metallica

  1. The Unforgiven
  2. Nothing Else Matters
  3. To live is to die
  4. The Ecstasy Of Gold
  5. The Unforgiven II
  6. Ecstasy of Gold
  7. The Memory Remains
  8. Master Of Puppets
  9. Ronnie
  10. Fade To Black

Pela Web