Cifras Web
Mike Pinto

Full Speed

Mike Pinto

7 acessos

(intro)


|------------------------------------5---5---5---5-|
|------------------------------------5---5---5---5-|
|----------------------------12-14---5---5---5---5-|  x 4
|-12p10----10----------------10-12---7---7---7---7-|
|-------12------12p10----10------------------------|
|---------------------12---------------------------|



|---------5---5---5---5-|
|---------5---5---5---5-|
|----5----5---5---5---5-|
|-5--5----7---7---7---7-|
|-5--3------------------|
|-3---------------------|


(verso)


|-5---5---5---5---1---1---1---1---8---8---8---8---7---7---7---7-|
|-5---5---5---5---1---1---1---1---8---8---8---8---9---9---9---9-|
|-5---5---5---5---2---2---2---2---9---9---9---9---9---9---9---9-|
|-7---7---7---7---3---3---3---3---10--10--10--10--9---9---9---9-|
|---------------------------------------------------------------|
|---------------------------------------------------------------|


(interlude - destorção)


|-------------------------------------------------|
|-------------------------------------------------|
|-10-10-10-10-10-10-10-10-------------------------|  x 3
|-10-10-10-10-10-10-10-10-10-10-10-10-10-10-10-10-|
|-8--8--8--8--8--8--8--8--10-10-10-10-10-10-10-10-|
|-------------------------8--8--8--8--8--8--8--8--|



|-----------------------------------------------|
|-----------------------------------------------|
|-10-10-10-10-10-10-10-10-----------------------|
|-10-10-10-10-10-10-10-10-10-10-9-9-7-7-7-7-7-7-|
|-8--8--8--8--8--8--8--8--10-10-9-9-7-7-7-7-7-7-|
|-------------------------8--8--7-7-5-5-5-5-5-5-|



|-------------------------------------|
|-------------------------------------|
|-10----------------------------------|  x 2
|-10------------------7-7-7-7-7-7-7-7-|
|-8-----7------7------7-7-7-7-7-7-7-7-|
|---------10-8-----8--5-5-5-5-5-5-5-5-|



|------------------------|
|------------------------|
|----------------------5-|  x 3
|-7-7-7-7-7-7-7-7---5--5-|
|-7-7-7-7-7-7-7-7---5--3-|
|-5-5-5-5-5-5-5-5---3----|


|----------------------------|
|----------------------------|
|----------------------------|
|-7-7-7-7-7-7-7-7-----10-----|
|-7-7-7-7-7-7-7-7--------10~-|
|-5-5-5-5-5-5-5-5------------|

TOP cifras de Mike Pinto

  1. Tricky Nicky
  2. Backburner
  3. Chilean Lover
  4. Full Speed
  5. Ill Let You In

Pela Web