Cifras Web
Nightwish

End Of All Hope

Nightwish

17 acessos

Intro ("It is the end of all hope...")

E||-------------------------------|
B||-------------------------------|
G||-------------------------------|
D||-------------------------------|
A||--5-5-5-5---5-5-5-5-----3-3----|
E||--3-3-3-3---3-3-3-3-----1-1----|



E||-------------------------------|
B||-------------------------------|
G||------------------------7-7----|
D||------------------------7-7----|
A||--5-5-5-5---5-5-5-5-----5-5----|
E||--3-3-3-3---3-3-3-3------------|



E||-------------------------------|
B||-------------------------------|
G||-------------------------------|
D||-------------------------------|
A||--3-3-3-3---3-3-3-3-----3-3----|
E||--1-1-1-1---1-1-1-1-----1-1----|



E||-------------------------------|
B||-------------------------------|
G||------------------------3------|
D||--5-5-5-5---5-5-5-5-----1-3----|
A||--3-3-3-3---3-3-3-3-------1----|
E||-------------------------------|




Riff 1 ("This is the birth of all hope...")

E||-------------------------------------------------|
B||-------------------------------------------------|
G||-------------------------------------------------|
D||---------------------------------------5----5----|
A||--2------------------------------------3----3----|
E||--0-0-0-0-0-0-0-0-0-0-0-0-0-0-0-0-0-0------------|




E||-------------------------------------------------|
B||-------------------------------------------------|
G||---------------------------------------2----2----|
D||--7------------------------------------2----2----|
A||--5-5-5-5-5-5-5-5-5-5-5-5-5-5-5-5-5-5--0----0----|
E||-------------------------------------------------|



E||-------------------------------------------------|
B||-------------------------------------------------|
G||-------------------------------------------------|
D||---------------------------------------5----5----|
A||--2------------------------------------3----3----|
E||--0-0-0-0-0-0-0-0-0-0-0-0-0-0-0-0-0-0------------|



E||-------------------------------------------------|
B||-------------------------------------------------|
G||-------------------------------------------------|
D||--7------------------------------------2----2----|
A||--5-5-5-5-5-5-5-5-5-5-5-5-5-5-5-5-5-5--2----2----|
E||---------------------------------------0----0----|




Riff 3 (2x) (Hardest in the whole song)

E||----------------------------------------------------|
B||----------------------------------------------------|
G||----------------------------------------------------|
D||---------------------------------------------3------|
A||--5-----5---------0-1-0----5-----5-----1-0-1---1-0--|
E||--3-3-3-3-3-3-1-3-------1--3-3-3-3-3-3--------------|



E||------------------------------------------------|
B||------------------------------------------------|
G||------------------------------------------------|
D||------------------------------------------------|
A||--5---5-----------0-1-0---3--3-3-1-0-0--0---0---|
E||--3-3-3-3-3-3-1-3-------1-----------------3-----|




Riff 3 fill (in the end of the 2nd time)

E||--------------------------|
B||--------------------------|
G||--------------------------|
D||-----------------------5--|
A||--1-0---0--------------5--|
E||------3---3-1-3-3-3-3--3--|




Bridge to Verse ("No will to wake...")

E||------------------------------|
B||------------------------------|
G||------------------------7-----|
D||----------777----333----7-----|
A||---555----555----111----5-----|
E||---333------------------------|




Verse ("Angels they fell first...")

E||----------------------------------|
B||----------------------------------|
G||----------------------------------|
D||----------------------------------|
A||--5555--5555--5555--3-3-----------|
E||--3333--3333--3333--1-1-----------|



E||----------------------------------|
B||----------------------------------|
G||----------------------------------|
D||--------------------7-------------|
A||--5555--5555--5555--5-7-----------|
E||--3333--3333--3333----5-----------|



E||----------------------------------|
B||----------------------------------|
G||--------------------------3---2---|
D||--------------------------3---2---|
A||--5555--5555--5555--3-3---1---0---|
E||--3333--3333--3333--1-1-----------|



Chorus ("It is the end of all hope...")

E||----------------------------------------|
B||----------------------------------------|
G||----------------------------------------|
D||----------------------------------------|
A||--5---------5---------5---------3--3----|
E||--3-3-3-3-3-3-3-3-3-3-3-3-3-3-3-1--1----|



E||----------------------------------------|
B||----------------------------------------|
G||----------------------------------------|
D||--------------------------------7--7----|
A||--5---------5---------5---------5--5----|
E||--3-3-3-3-3-3-3-3-3-3-3-3-3-3-3---------|



E||----------------------------------------|
B||----------------------------------------|
G||----------------------------------------|
D||----------------------------------------|
A||--3---------3---------3---------3--3----|
E||--1-1-1-1-1-1-1-1-1-1-1-1-1-1-1-1--1----|



E||----------------------------------------|
B||----------------------------------------|
G||---------------------------------3------|
D||--5---------5---------5----------1--3---|
A||--3-3-3-3-3-3-3-3-3-3-3-3-3-3-3-----1---|
E||----------------------------------------|



Repeat Riff 3 ("Wounded is the deer that...")


Repeat Chorus


Repeat Riff 1 ("This is the Birth of all hope...")



Riff 4 (HEAVY PART! YEAH!) (3x)

E||---------------------------------------------------------------------------|
B||---------------------------------------------------------------------------|
G||---------------------------------------------------------------------------|
D||---------------------------------------------------------------------------|
A||-2--2-2-2-2--2-2-2-2--2-2-2-2--2-2-2-2--2-2-2-2--2-2-2-2--2-2-2-2--4--5----|
E||-0--0-0-0-0--0-0-0-0--0-0-0-0--0-0-0-0--0-0-0-0--0-0-0-0--0-0-0-0--2--3----|




Riff 5 ("Mandylion without a face...") (2x)

E||------------------------------------------------------------|
B||------------------------------------------------------------|
G||------------------------------------------------------------|
D||--7777--7777--7777--7777--7777--7777--7777--7--------5------|
A||--5555--5555--5555--5555--5555--5555--5555--5--7--3--3------|
E||-----------------------------------------------5--1---------|




Repeat Riff 4 (2x)

Repeat Riff 5 (2x)

Solo Rythm

E||---------------------|
B||---------------------|
G||---------------------|
D||-7-----5---2---3---5-|
A||-5--5--3---0---1---3-|
E||----3----------------|



(Bass riff)

Repeat Chorus


Tarja "solo" (3:13)

E||------------------------|
B||------------------------|
G||------------------------|
D||----5-7---2-----5-7--9--|
A||-2--3-5---0-2---3-5--7--|
E||-0----------0-----------|



Repeat Chorus (2x)


Outro ("Ahh..")
E||---------------------------------|
B||---------------------------------|
G||---------------------------------|
D||--7------------------------------|
A||--5---3---5----5-5-5-5-5-5-5\----|
E||------1---3----3-3-3-3-3-3-3\----|

TOP cifras de Nightwish

  1. Rest Calm
  2. Islander
  3. Eva
  4. Storytime
  5. Dead To the World
  6. Romanticide Intro
  7. Siren
  8. Wish I Had An Angel
  9. Romanticide
  10. The Islander

Pela Web