Cifras Web
Nightwish

Lappi (Lap Land) IV - Etiäinen

Nightwish

17 acessos

Intro 4x:

E|------0--0------------|----2---2--3--5--3--2-|
B|-----0-----0---3------|---3-----3--3--3--3---|
G|----0--------0---0----|--2-------2--2--2--2--|
D|---2------------------|-0--------------------|
A|--2-------------------|----------------------|
E|-0--------------------|----------------------|



E|-----0-----0----------|------0---------------|
B|----1-----0-----------|-----0----------------|
G|---2-----2------------|----0-----------------|
D|--2-----2-------------|---2------------------|
A|-0-----0--------------|--2-------------------|
E|----------------------|-0--------------------|


Solo:
(0:57)

E|---------------------------0-3-5-|
H|---------------------0-1-3-------|
G|-----------------0-2-------------|
D|-------------0-2-----------------|
A|-------0-2-3---------------------|
E|-3-2-3---------------------------|


   G                  D                   Am             Em
E|-/7--7-5h7p5------|8h10--8--7--8-7h8p7|5------0------|---12*-------|
B|-------------8-10-|-------------------|--------------|12*----------|
G|------------------|-------------------|--------------|-------------|
D|------------------|-------------------|--------------|-------------|
A|------------------|-------------------|--------------|-------------|
E|------------------|-------------------|--------------|-------------|


  G                                        D                 Am
E|--10-8-10--------------10--8----------|-----------------|--------|
B|-8-------8-12-10-12-8-------12--10--8-|7---7--8-10-7h8p7|--------|
G|--------------------------------------|-----------------|9-------|
D|--------------------------------------|-----------------|--------|
A|--------------------------------------|-----------------|--------|
E|--------------------------------------|-----------------|--------|

||                                      |                 |        |

E|---7-5-7----------------7--5----------|-----------------|--------|
B|------------8--7--8----------8---7--5-|-----------------|--------|
G|-7-------7----------7-----------------|7----------------|--------|
D|--------------------------------------|-----------------|--------|
A|--------------------------------------|-----------------|--------|
E|--------------------------------------|-----------------|--------|

   Em

E|---------------------------0-3-5-|
H|---------------------0-1-3-------|
G|-----------------0-2-------------|
D|-------------0-2-----------------|
A|-------0-2-3---------------------|
E|-3-2-3---------------------------|


   G                  D                   Am              Em
E|-/7--7-5h7p5------|-8h10--8--7--8-7h8-|-/12-----------|12*----------|
B|-------------8-10-|-------------------|---------------|---12*-------|
G|------------------|-------------------|---------------|-------------|
D|------------------|-------------------|---------------|-------------|
A|------------------|-------------------|---------------|-------------|
E|------------------|-------------------|---------------|-------------|


   G                                      D               Am
E|--------10-12-15-12-------10-8-7-h8p7-|5----5---------|-------------|
B|-----12-------------------------------|-------8-7-h8p7|-5-----------|
G|-9-12---------------------------------|---------------|-------------|
D|--------------------------------------|---------------|-------------|
A|--------------------------------------|---------------|-------------|
E|--------------------------------------|---------------|-------------|

 |                                      |               |             |

E|--------------10----------------------|---------------|-------------|
B|-----------12----12-------------------|---------------|-------------|
G|------9-12----------------------------|---------------|-------------|
D|-9-12---------------------------------|---------------|-------------|
A|--------------------------------------|---------------|-------------|
E|--------------------------------------|---------------|-------------|


Interlúdio:
(1:26 a 2:25)

E|------0-0------------------0-||
B|-----0----0---3-----------0--||
G|----0-------0---0--------0---||
D|---2--------------------2----||
A|--2--------------------2-----||
E|-0--------------------0------||


Para finalizar, os seguintes acordes:
  G                 D
   Ú   Ù Ú   Ù Ú Ù   Ú   Ù Ú   Ù Ú Ù

E|-3---3-3---3-3-3-|-2---2-2---2-2-2-|
B|-0---0-0---0-0-0-|-3---3-3---3-3-3-|
G|-0---0-0---0-0-0-|-2---2-2---2-2-2-|
D|-0---0-0---0-0-0-|-0---0-0---0-0-0-|
A|-2---2-2---2-2-2-|-----------------|
E|-3---3-3---3-3-3-|-----------------|

  Am                Em
   Ú   Ù Ú   Ù Ú Ù   Ú   Ù Ú   Ù Ú Ù

E|-0---0-0---0-0-0-|-0---0-0---0-0-0-|
B|-1---1-1---1-1-1-|-0---0-0---0-0-0-|
G|-2---2-2---2-2-2-|-0---0-0---0-0-0-|
D|-2---2-2---2-2-2-|-2---2-2---2-2-2-|
A|-0---0-0---0-0-0-|-2---2-2---2-2-2-|
E|-----------------|-0---0-0---0-0-0-|


Ú = Começa com a corda mais baixa
Ù = Começa com a corda mais alta

TOP cifras de Nightwish

  1. Rest Calm
  2. Islander
  3. Eva
  4. Storytime
  5. Dead To the World
  6. Romanticide Intro
  7. Siren
  8. Wish I Had An Angel
  9. Romanticide
  10. The Islander

Pela Web