Cifras Web
Now Noise

Leichenvater

Now Noise

4 acessos


E||-----------------------------|----------------------------|
B||-----------------------------|----------------------------|
G||*----------------------------|----------------------------|
D||*----------------------------|----------------------------|
A||-----------------------------|----------------------------|
E||---0--x--4----3---0-2--3--5--|--0--x--4----3---0-2--3--5--|



                                                                          6x

--------------------------------------|-----------------------------------||
--------------------------------------|-----------------------------------||
--------------------------------------|----------------------------------*||
--------------------------------------|----------------------------------*||
--------------------------------------|-----------------------------------||
--0--0--0--1--1--1--4--4--4--3--3--3--|--1--1--1--3--3--3--4--4--4--1~----||



                                                                            2x

----------------------|---------------------|-------------------------------||
----------------------|---------------------|-------------------------------||
*---------------------|---------------------|------------------------------*||
*---------------------|---------------------|------------------------------*||
----------------------|---------------------|-------------------------------||
---0--x--5------------|--0--x--4------------|--0--0--0--0--0--0--1----3-----||



                                                       8x

---------------------------|---------------------------||
---------------------------|---------------------------||
*--------------------------|--------------------------*||
*--------------------------|--------------------------*||
---------------------------|---------------------------||
---0--0--0--0--5--0--0--0--|--4--0--0--0--4--0--4--5---||



                                                       8x

---------------------------|---------------------------||-------------------|
---------------------------|---------------------------||-------------------|
*--------------------------|--------------------------*||-------------------|
*--------------------------|--------------------------*||-------------------|
---------------7-----------|--6-----------6-----6--7---||--7----------------|
---0--0--0--0-----0--0--0--|-----0--0--0-----0---------||-------------------|



                                                                           4x

-------------------||---------------------------|--------------------------||
-------------------||---------------------------|--------------------------||
-------------------||*--------------------------|-------------------------*||
-------------------||*--------------------------|-------------------------*||
-------------------||------3--5--3--2--3--2-----|-----3--5--3--2-----------||
--0----------------||---0--------------------3--|--0--------------3--2-----||



------------------------|-----------------------|-----------------------|
------------------------|-----------------------|-----------------------|
*-----------------------|-----------------------|-----------------------|
*-----------------------|-----------------------|-----------------------|
------------5------6----|-----------6------5----|-----------5------6----|
---0--0--x--------------|--0--0--x--------------|--0--0--x--------------|



                       2x

-----------------------||----------------------|-----------------------|
-----------------------||----------------------|-----------------------|
----------------------*||*---------------------|-----------------------|
----------------------*||*---------------------|-----------------------|
-----------------------||----------------------|--2-------2----3--2----|
--0--0------0--0-------||---0------------2--3--|-------3---------------|



                                              4x
---------------------|------------------------||---------------------|--||
---------------------|------------------------||---------------------|--||
---------------------|-----------------------*||---------------------|--||
---------------------|---------------3-------*||---------------------|--||
---------------------|--2-------2-------2-----||---------------------|--||
--0------------2--3--|-------3----------------||--0------1------3----|--||

Top cifras de Now Noise

  1. Der Korper Bin Ich
  2. Das 7 Fleisch
  3. Kindheitstraum
  4. Leichenvater
  5. Gedarmerausch
  6. Tourette De Mar

Pela Web