Padre Zezinho

Oração de Quem Não Reza

Padre Zezinho

Intro:


E|--------3-3-3-2-0-------5-3--5-----5-3-----3-3-2--|
B|-------------------3-1---------3-1-----3-1--------|
G|--------------------------------------------------|
D|--------------------------------------------------|
A|--2-----------------------------------------------|
E|----0---------------------------------------------|



E|----------------------3-3-2-0---------------------|
B|--------------------------------------------------|
G|-------0-0----------------------------------------|
D|-----------4-2------------------------------------|
A|---0-2-----------0-2------------------------------|
E|-0-------------0----------------------------------|



Em B7
Não sou de rezar muito e bem o sabes
Em
E a minha oração é tão pequena
B7 Em
Tão frágil que eu nem sei se chega lá no céu.
Em B7
Eu sei que és meu amigo e não duvido
Em
Mas tem um não sei quê dentro de mim
Am Em
Que faz eu ser assim
Em Em
Um pouco amigo teu e um pouco ateu,
B7 Em
um pouco publicano e um pouco fariseu.
Am Em
Tu falas mais comigo do que eu falo contigo
B7 Em
No teu silêncio imenso falas muito mais que eu
Em
E eu que falo tanto a tanta gente e tanta coisa
Am B7 Em
Falar eu sei, rezar é que eu não sei.
Em Am
Por isso meu Senhor
B7
Se tens aí algum milagre pra me dar
Em B7
Ensina-me a fazer silêncio
Em
Ensina-me a querer rezar.

Solo final:
E|----------------------3-3-2-3-0-------------------|
B|--------------------------------------------------|
G|-------0-0----------------------------------------|
D|-----------4-2------------------------------------|
A|---0-2-----------0-2------------------------------|
E|-0-------------0----------------------------------|

Curte essa cifra? Compartilhe com seus amigos:


Pela Web

Deixe seu comentário