Cifras Web
Planet Hemp

Ex-Quadrilha da Fumaça

Planet Hemp

11 acessos

  riff1                  riff1b    riff1c

e|---------------------|----------|--------|
B|---------------------|----------|--------|
G|---------------------|----------|--------|
D|---------------------|-4/6---4--|--------|
A|-2p4-4-4--------2----|----------|-6--4-4-|
E|----------2p4-4----4-|----------|-4--2-2-|



.----[refrão]--------- --- - -
|  (riff1)
| Adivinha doutor quem tá de volta na praça?
|  (riff1b)
| Planet Hemp! Ex-quadrilha da fumaça
|  (riff1)
| Adivinha doutor quem tá de volta na praça?
|  (riff1c)
| Planet Hemp! Ex-quadrilha da fumaça
`----[refrão]--------- --- - -


  riff2

e|-------------------------|
B|-------------------------|
G|-------------------------|
D|-------------------------|
A|-------2-----------4-2-4-|
E|-4--4----2---4--4--------|



 (riff2)
Fumaça que sai do fogo que nunca vai apagar
Eu tô de volta e ninguém pode me parar
Botando pra fuder e sem sair de cima
Tão certo quanto 2 e 2 são 4 eu tô na rima
Tudo bem, é perigoso e sei que corro riscos
Quando pego o microfone e junto com dois toca discos
Se for linha número 5 ex-quadrilha da fumaça
Sujou os Homens! Disfarça Disfarça!


(refrão)


 (riff2)
Entoxicados pra ignorância reinam os homens fumaça 
Mais uma vez se apresentam pra missão
E pra que o governo que nao representa o funk cetero
Chutando o rabo do congressista brasileiro
Que foje do trabalho que nem vampiro do alho
Só que saber do cascalho caralho no rabo do povo
De novo sempre é quinhentos anos dilatados o feast-funk
Tenta segurar até o último centavo




e|--------------------|
B|--------------------|
G|--------------------|
D|-11--11-9-----------|
A|-9---9--7---9--9>11-|
E|------------7--7>9--|



Triste é que esta jogando 12 por 18 e tentando se esquivar
Os caes ladram mas a caravana nunca vai parar
Planet Hemp de novo soltando a fumaça no ar
Só sangue bom mas duro de derramar


 (riff2)
Intão rapá, o que que há?
Planet hemp na área, quem disse que ia acabar?!
Ninguém vai me tirar o trono, eu vou tirar seu sono
Com o som que você nunca vai imitar
Tosse na fumaça que deixa quando passa a ex-quadrilha
Você não gosta de mim, mas sim a sua filha
Eu boto pilha e os outros seguem a trilha
E eu sigo tranqüilo com Jah, eu e minha família


(refrão)


base do solo - (G#>A# A#)


(solo)


  riff3

e|-----------|
B|-----------|
G|-----------|
D|-----------|
A|-6--4------|
E|-------4/6-|



"Querem me calar, mas olha eu aqui denovo"


final:


 |  toca-se esta parte 2x  | (2 vezes)  |

e|-------------------------|------------|-------------------------|
B|-------------------------|------------|-------------------------|
G|-------------------------|------------|-------------------------|
D|-------------------------|------------|-------------------------|
A|-------2-----------4-2-4-|-------2----|-------2-----------4-2-4-|
E|-4--4----2---4--4--------|-4--4-----4-|-4--4----2---4--4--------|




Por Renato Antônio

TOP cifras de Planet Hemp

  1. Mantenha O Respeito
  2. Contexto
  3. Legalize Já
  4. Dig, Dig, Dig ( Hempa )
  5. Nega Do Cabelo Duro
  6. A Culpa É De Quem ?
  7. Fazendo A Cabeça
  8. Não Compre Plante
  9. Queimando Tudo
  10. Zerovinteum

Pela Web