Cifras Web
Planet Hemp

HC3

Planet Hemp

9 acessos

Riff 1 /Introdução :

Guitarra (distorção):


e|----------------------------------------------------------------|
b|----------------5---5-------------------------------------------|
g|--4-4-4-4-4-4-5-5-5-5-5-0-4-4-4-4-4-4-----5---5-5---------------| x4
d|--4-4-4-4-4-4-5-3-5-3-5-0-4-4-4-4-4-4-0-5-5-5-5-5---------------|
a|--2-2-2-2-2-2-3---3---3-0-2-2-2-2-2-2-0-5-3-5-3-0---------------|
e|--------------------------------------0-3---3-------------------|


Riff 2


e|-------------------------------------------------------|
b|--------------------8-8-8------------------------------|
g|--7-7-7-7-7-7-7---7-8-8-8-7-7-7-7-7-7-8-10-------------|  x2
d|--7-7-7-7-7-7-7-8-7-6-6-6-7-7-7-7-7-7-8-10-8-----------|
a|--5-5-5-5-5-5-5-8-5-------5-5-5-5-5-5-6-8--8-----------|
e|----------------6--------------------------6-----------|


Riff 3

Guitarra (abafado):


e|------------------------------------------------------------------|
b|------------------------------------------------------------------|
g|--------x-6-6-6---------x-9-9-9---------x-6-6-6---------x-9-9-9-9-| x8
d|--8-8-8-x-6-6-6-x-6-6-6-x-9-9-9-x-8-8-8-x-6-6-6-x-6-6-6-x-9-9-9-9-|
a|--8-8-8-x-4-4-4-x-6-6-6-x-7-7-7-x-8-8-8-x-4-4-4-x-6-6-6-x-7-7-7-7-|
e|--6-6-6---------x-4-4-4---------x-6-6-6---------x-4-4-4-----------|


 OBS: sempre na 2,4,6,8 vez o final ñ abafa......

Repete riff 1 x4
Repete riff2  x2

Final

e|---------------------------------------------|
b|---------------------------------------------|
g|--------8-5-7-------7-5-7-------8-5-7-5------|
d|--7-7-7-8-5-7-7-7-7-8-5-7-7-7-7-8-5-7-5-7----|
a|--7-7-7-6-3-5-7-7-7-6-3-5-7-7-7-6-3-5-3-7----|
e|--5-5-5-------5-5-5-------5-5-5---------5----|

TOP cifras de Planet Hemp

  1. Mantenha O Respeito
  2. Contexto
  3. Legalize Já
  4. Dig, Dig, Dig ( Hempa )
  5. Nega Do Cabelo Duro
  6. A Culpa É De Quem ?
  7. Fazendo A Cabeça
  8. Não Compre Plante
  9. Queimando Tudo
  10. Zerovinteum

Pela Web