Cifras Web
Planet Hemp

Porcos Fardados

Planet Hemp

11 acessos

Esses riffs são, na verdade, do teclado, mas com uma boa distorção e wah-wah fica legal na
guitarra também.

Esse riff é no corpo da musica.

Riff 1

G||-----------------||
D||----------5------||
A||7-7-7---5---7-7-7||
E||------7----------||


O Riff 2 entra depois da pausa em que Marcelo D2 canta: "Invadem, invadem, invadem, 
invadem sua casa sem um mandado oficial..."

Riff 2

G||--9-7-----------||
D||------9-8-7--9--||
A||7---------------||
E||----------------||


Depois dessa parte volta para o Riff 1

TOP cifras de Planet Hemp

  1. Mantenha O Respeito
  2. Contexto
  3. Legalize Já
  4. Dig, Dig, Dig ( Hempa )
  5. Nega Do Cabelo Duro
  6. A Culpa É De Quem ?
  7. Fazendo A Cabeça
  8. Não Compre Plante
  9. Queimando Tudo
  10. Hemp Family

Pela Web