Cifras Web
Planet Hemp

Quarta de Cinzas

Planet Hemp

11 acessos

(intro)
G||-----------------||
D||-----------------||
A||-5--5------------||
E||4------7---------||

(passagem)
G||------------------||
D||------------------||
A||7-------57--5--5--||
E||---7----------7---||

(verso)
G||-----------------||--------------------||
D||-----------------||--------------------||
A||--55------5------||--55------5---5---5-||
E||4-----4-5--------||4-----4-5--------7--||

(final)
G||----------------||
D||----------------||
A||--55-----5------||
E||4-----4---------||

TOP cifras de Planet Hemp

  1. Mantenha O Respeito
  2. Contexto
  3. Legalize Já
  4. Dig, Dig, Dig ( Hempa )
  5. Nega Do Cabelo Duro
  6. A Culpa É De Quem ?
  7. Fazendo A Cabeça
  8. Não Compre Plante
  9. Queimando Tudo
  10. Zerovinteum

Pela Web