Cifras Web
Planet Hemp

Se Liga

Planet Hemp

9 acessos


|-------------------|
|-------------------|
|-------------------|
|-------------------|
|-------------------|
|-5^-6^-5^-6^-8^-6^-|




|----------------------------|
|----------------------------|
|----------------------------|
|----------------------------|
|-7--7--7---8-8-8---10-10--8-|
|-5--5--5---6-6-6---8--8---6-|

Se segura na cadeira, Planet Hemp na area


|----------------------------|
|----------------------------|
|----------------------------|
|----------------------------|
|-7--7--7---8-8-8---10-10--8-|
|-5--5--5---6-6-6---8--8---6-|

É bom ficar ligado... que o gatilho não falha


|----------------------------|
|----------------------------|
|----------------------------|
|----------------------------|
|-7--7--7---8-8-8---10-10--8-|
|-5--5--5---6-6-6---8--8---6-|

O som é chapado e o lero vai na lata


|---------------------------|
|---------------------------|
|-----------9-9-9-10-10-9-9-|
|---------------------------|
|-7--7--7-------------------|
|-5--5--5-------------------|

Preste atenção, mermão, isso é ouro não é prata



|----------------------------|
|----------------------------|
|----------------------------|
|----------------------------|
|-7--7--7---8-8-8---10-10--8-|
|-5--5--5---6-6-6---8--8---6-|

Não faça o que eu faço, faça o que eu digo




|----------------------------|
|----------------------------|
|----------------------------|
|----------------------------|
|-7--7--7---8-8-8---10-10--8-|
|-5--5--5---6-6-6---8--8---6-|

Então se liga se liga que aqui não ganha o grito



|----------------------------|
|----------------------------|
|----------------------------|
|----------------------------|
|-7--7--7---8-8-8---10-10--8-|
|-5--5--5---6-6-6---8--8---6-|

O meu nome é Marcelo, vulgo D2



|----------------------------|
|----------------------------|
|----------------------------|
|----------------------------|
|-7--7--7---8-8-8---10-10--8-|
|-5--5--5---6-6-6---8--8---6-|

O que eu tenho pra falar eu falo agora, não tem caô, não vou deixar pra depois...



|--------------------------|
|--------------------------|
|------------9-9-10-10-9-9-|
|-7--5--7------------------|
|-7--5--7------------------|
|-5--3--5------------------|







|-----------------------------------|
|-----------------------------------|
|-----------------------------------|
|-----------------------------------|
|-----------------------------------|
|-5-5---6-6---5-5---6-6---8-8---6-6-|

Se liga, na minha só cola sangue bom, Matenha o respeito só o que atinge é o som



(Efeito da Guitarra)
... Se você ainda não conhece, vou apresenta Ex-quadrilha da fumaça...



|-------------------|
|-------------------|
|-------------------|
|-------------------|
|-------------------|
|-5^-6^-5^-6^-8^-6^-|

...Planet Hemp presente.


|----------|
|----------|
|----------|
|----------|
|-5^-6^-5^-|
|----------|

TOP cifras de Planet Hemp

  1. Mantenha O Respeito
  2. Legalize Já
  3. Contexto
  4. Dig, Dig, Dig ( Hempa )
  5. Nega Do Cabelo Duro
  6. Fazendo A Cabeça
  7. Queimando Tudo
  8. A Culpa É De Quem ?
  9. Não Compre Plante
  10. Stab

Pela Web