Cifras Web
Queens Of The Stone Age

Quick and to the Pointless

Queens Of The Stone Age

11 acessos

Afinação Padrão


----****----

Riffs

----****----


Riff 1

||-------------------------|-------------------------|
||-------------------------|-------------------------|
||-------------------------|-------------------------|
||--2h---3--3--3--3--3--3--|--2h---3--3--3--3--3--3--|
||--2h---3--3--3--3--3--3--|--2h---3--3--3--3--3--3--|
||--0h---1--1--1--1--1--1--|--0h---1--1--1--1--1--1--|


Riff 2

||--------------------------|--------------------------|
||--------------------------|--------------------------|
||--------------------------|--------------------------|
||--5--5--5--5--5--5--5--5--|--5--5--5--5--5--5--5--5--|
||--5--5--5--5--5--5--5--5--|--5--5--5--5--5--5--5--5--|
||--3--3--3--3--3--3--3--3--|--3--3--3--3--3--3--3--3--|



||--------------------------|--------------------------|
||--------------------------|--------------------------|
||--------------------------|--------------------------|
||--4--4--4--4--4--4--4--4--|--4--4--4--4--4--4--4--4--|
||--4--4--4--4--4--4--4--4--|--4--4--4--4--4--4--4--4--|
||--2--2--2--2--2--2--2--2--|--2--2--2--2--2--2--2--2--|



----****----

Músicas

----****----

                                                     
I don´t even know what i'm doing here?
Yeah, yeah, yeah, yeah

Riff 1(8x)

Riff 1 (8x)
A little girl can never freeze
Of a totatly you gotta be with me
I know, you know
Everybody everyone let's go

Riff 2
Oh, baby, baby, you're so sweet
Ah, ah, wooo

Riff 1(4x)

Riff 1(8x)
Living is hard, everybody falls
I'm so old, you're so young
I know, you know
Everybody everyone let's go

Riff 2
Oh, baby, baby, you're so sweet
Goddamn, ah, ah, whoa

Riff 1(4x)
Yeah, yeah, yeah, yeah

Riff 1(2x)
Yeah, yeah, yeah, yeah

Riff 1(2x)

Riff 1(8x)
exit for now? warning!
Little girl, it's what I saw
You know, I know
Everybody everyone let's go

Riff 2
Oh, baby, baby, you're so sweet
Whoooo

Riff 1(4x)

Riff2
Ah, baby, baby, you're so sweet
Goddamn, ah, ah, whoa!

Riff 1(2x)

TOP cifras de Queens Of The Stone Age

  1. If I Had a Tail
  2. No One Knows Acoustic
  3. Like A Drug
  4. Tangled Up In Plaid
  5. Make It Wit Chu
  6. Mexicola
  7. The Vampyre Of Time And Memory
  8. I Sat By The Ocean
  9. 18 Ad
  10. Little Sister

Pela Web