Cifras Web
Queens Of The Stone Age

Someones In The Wolf

Queens Of The Stone Age

10 acessos

:Intro: 
 
Guitar 1 (Heavy Distortion) 
e|----------------------------------------------| 
B|----------------------------------------------| 
G|----------------------------------------------| 
D|----------------------------------------------| 
A|---4-----4-----4---4---4----------------------| 
E|-----3-3---3-3---3---3---3-3------------------| 
 
Guitar 2 
e|---10----10----10--10--10---------------------| 
B|------8-----8----8---8---8--------------------| 
G|----------------------------------------------| 
D|----------------------------------------------| 
A|----------------------------------------------| 
E|----------------------------------------------| x2 
 
Guitar 1 
e|----------------------------------------------| 
B|-8888-10-10--11111111-14-14-------------------| 
G|-xxxx-x--x----x-x-x-x--x--x-------------------| 
D|-5555-7--7----8-8-8-8-11-11-------------------| 
A|----------------------------------------------| 
E|----------------------------------------------| x2 
 
Guitar 1 
e|----------------------------------------------| 
B|-8888-10101010-11111111-14141414--------------| 
G|-xxxx--x-x-x-x--x-x-x-x--x-x-x-x--------------| 
D|-5555--7-7-7-7--8-8-8-8-11111111--------------| 
A|----------------------------------------------| 
E|----------------------------------------------| 
 
Guitar 2 
e|----------------------------------------------| 
B|-6666-7777-8888-10101010----------------------| 
G|-xxxx-xxxx-xxxx--x-x-x-x----------------------| 
D|-3333-4444-5555--7-7-7-7----------------------| 
A|----------------------------------------------| 
E|----------------------------------------------| x2 
 
Guitars 1&2 
e|----------------------------------------------| 
B|----------------------------------------------| 
G|----------------------------------------------| 
D|----------------------------------------------| 
A|---4-----4-----4---4---4----------------------| 
E|-----3-3---3-3---3---3---3-3------------------| x2 
 
:Verse 1: 
 
Guitar 1 
e|----------------------------------------------| 
B|----------------------------------------------| 
G|----------------------------------------------| 
D|----------------------------------------------| 
A|---------4-------------4-------------4--------| 
E|-3-3-3-3----3--3-3-3-3----3--3-3-3-3----3-----| 
 
Guitar 2 
e|----------------------------------------------| 
B|----------------------------------------------| 
G|---------6-------------6----------------------| 
D|-5-5-5-5----5--5-5-5-5----5--5-5-5-5----------| 
A|----------------------------------------------| 
E|----------------------------------------------| 
 
Guitar 1&2 
e|----------------------------------------------| 
B|----------------------------------------------| 
G|-6-6-6-4---4-6--------------------------------| 
D|---------5-----5------------------------------| 
A|----------------------------------------------| 
E|----------------------------------------------| x6 
 
:Bridge 1: (use above verse riff to smoothly transition into bridge) 
 
Guitar 1&2 
e|---------7---9-9-9-9-7--9-9-9-9-7-------------| 
B|-----6/8---8----------------------------------| 
G|---6------------------------------------------| 
D|-5--------------------------------------------| 
A|----------------------------------------------| 
E|----------------------------------------------| 
 
Guitar 1 
e|-9-9-9-7--------------------------------------| 
B|---------7-8----------------------------------| 
G|-------------6--------------------------------| 
D|---------------9------------------------------| 
A|----------------------------------------------| 
E|----------------------------------------------| x2 
 
:Verse 2: 
 
-Same as Verse 1 except the following change at (~1:40) and  
 this verse is played only 4x 
 
 
Guitar 1 (1:40) 
e|----------------------------------------------| 
B|----------------------------------------------| 
G|----------------------------------------------| 
D|----------------------------------------------| 
A|---------4-------------4-------------4--------| 
E|-3-3-3-3----3--3-3-3-3----3--3-3-3-3----3-----| 
 
Guitar 2 
e|----------------------------------------------| 
B|----------------------------------------------| 
G|---------9-------------9-------------9--------| 
D|-5-5-5-5----5--5-5-5-5----5--5-5-5-5----5-----| 
A|----------------------------------------------| 
E|----------------------------------------------| 
 
Guitar 1 
e|----------------------------------------------| 
B|----------------------------------------------| 
G|-6-6-6-4---4-6--------------------------------| 
D|---------5-----5------------------------------| 
A|----------------------------------------------| 
E|----------------------------------------------| 
 
Guitar 2 
e|-9-9-9-7-6-7-9-7------------------------------| 
B|----------------------------------------------| 
G|----------------------------------------------| 
D|----------------------------------------------| 
A|----------------------------------------------| 
E|----------------------------------------------| x1 
 
:Bridge 2: 
 
Guitar 1&2 (Guitar 2 first two times) 
e|---------7---9-9-9-9-7--9-9-9-9-7-------------| 
B|-----6/8---8----------------------------------| 
G|---6------------------------------------------| 
D|-5--------------------------------------------| 
A|----------------------------------------------| 
E|----------------------------------------------| 
 
Guitar 1&2 (Guitar 2 first two times) 
e|-9-9-9-7--------------------------------------| 
B|---------7-8----------------------------------| 
G|-------------6--------------------------------| 
D|---------------9------------------------------| 
A|----------------------------------------------| 
E|----------------------------------------------| x4 
 
Guitar 2 (Harmonized over Guitar 1 third time) 
e|---------7----12-12-12-12-10------------------| 
B|-----6/8---8----------------------------------| 
G|---6------------------------------------------| 
D|-5--------------------------------------------| 
A|----------------------------------------------| 
E|----------------------------------------------| 
 
Guitar 2 
e|-12-12-12-12-10--12-12-12-10------------------| 
B|-----------------------------7-8--------------| 
G|---------------------------------6------------| 
D|-----------------------------------9----------| 
A|----------------------------------------------| 
E|----------------------------------------------| x1 
 
Guitar 2 (Harmonized over Guitar 1 fourth time) 
e|---------7----12-12-12-12-14------------------| 
B|-----6/8---8----------------------------------| 
G|---6------------------------------------------| 
D|-5--------------------------------------------| 
A|----------------------------------------------| 
E|----------------------------------------------|  
 
Guitar 2 
e|-12-12-12-12-14--12-12-12-14--12-12-12-10-----| 
B|----------------------------------------------| 
G|----------------------------------------------| 
D|----------------------------------------------| 
A|----------------------------------------------| 
E|----------------------------------------------| 
 
Guitar 2 
e|-9-10-12-10-----------------------------------| 
B|----------------------------------------------| 
G|----------------------------------------------| 
D|----------------------------------------------| 
A|----------------------------------------------| 
E|----------------------------------------------| x1 
 
:Chorus: 
 
Guitar 1 
e|----------------------------------------------| 
B|-7-10--7/3------------------------------------| 
G|-----------10---------------------------------| 
D|--------------------12-------11-------9-------| 
A|--------------10-10----10-10----10-10---10-10-| 
E|----------------------------------------------| 
 
Guitar 2 
e|-----------13---------------------------------| 
B|-7-10--7/3----------15-------14-------12------| 
G|--------------12-12----12-12----12-12----12-12| 
D|----------------------------------------------| 
A|----------------------------------------------| 
E|----------------------------------------------| x4 
 
:Bridge Harmonies: 
 
Guitar 1 
e|----------------------------------------------| 
B|-8888-10-10--11111111-14-14-------------------| 
G|-xxxx-x--x----x-x-x-x--x--x-------------------| 
D|-5555-7--7----8-8-8-8-11-11-------------------| 
A|----------------------------------------------| 
E|----------------------------------------------| x2 
 
Guitar 1 
e|----------------------------------------------| 
B|-8888-10101010-11111111-14141414--------------| 
G|-xxxx--x-x-x-x--x-x-x-x--x-x-x-x--------------| 
D|-5555--7-7-7-7--8-8-8-8-11111111--------------| 
A|----------------------------------------------| 
E|----------------------------------------------| 
 
Guitar 2 
e|----------------------------------------------| 
B|-6666-7777-8888-10101010----------------------| 
G|-xxxx-xxxx-xxxx--x-x-x-x----------------------| 
D|-3333-4444-5555--7-7-7-7----------------------| 
A|----------------------------------------------| 
E|----------------------------------------------| x2 
 
Guitar 1  
e|----------------------------------------------| 
B|-14-15--15-14--14-15--------------------------| 
G|---------------------11-12--------------------| 
D|---------------------------11-10--------------| 
A|----------------------------------------------| 
E|----------------------------------------------| x4 
 
Guitar 2 
e|-16-17--17------------------------------------| 
B|-----------18--17-17-17-18--------------------| 
G|--------------------------18-19---------------| 
D|----------------------------------------------| 
A|--------------------------------20------------| 
E|-----------------------------------19---------| x2 
 
:Verse 3: 
 
-Guitar 1 plays normal verse 
-Played 6x as a whole 
 
Guitar 2 (Played 1st, 2nd, 3rd, 4th,& 6th times) 
e|---------10------------10------------10-------| 
B|-8-8-8-8----8--8-8-8-8----8--8-8-8-8----8-----| 
G|----------------------------------------------| 
D|----------------------------------------------| 
A|----------------------------------------------| 
E|----------------------------------------------| 
 
Guitar 2 
e|-10-10-10-8---8-10----------------------------| 
B|------------8------8--------------------------| 
G|----------------------------------------------| 
D|----------------------------------------------| 
A|----------------------------------------------| 
E|----------------------------------------------| x5 
 
Guitar 2 (3:23 - Played 5th time) 
e|---------12^------------12^------------12^----| 
B|-8-8-8-8-----8--8-8-8-8-----8--8-8-8-8-----8--| 
G|----------------------------------------------| 
D|----------------------------------------------| 
A|----------------------------------------------| 
E|----------------------------------------------| 
 
e|-12^13^13^13^13^12-10-------------------------| 
B|----------------------8-----------------------| 
G|----------------------------------------------| 
D|----------------------------------------------| 
A|----------------------------------------------| 
E|----------------------------------------------| x1 
 
:Bridge 3: 
 
-Same as Bridge 2 
 
:Verse 4: 
 
Guitar 2 (4:10) 
e|-------------10---------------10--------------| 
B|----------------8----------------8------------| 
G|-------10-12------------10-12-----------------| 
D|----12---------------12-----------------------| 
A|-10---------------10--------------------------| 
E|----------------------------------------------| 
 
e|-------------10---10-10-10-8---8-10-----------| 
B|----------------8------------8------8---------| 
G|-------10-12----------------------------------| 
D|----12----------------------------------------| 
A|-10-------------------------------------------| 
E|----------------------------------------------| 
 
:Interlude: 
 
-Here's a rough go at the end of it when the vocals re-enter 
-Use a slide 
-{} denotates harmonic 
 
Guitar 1 
e|----------------------------------------------| 
B|-7-10--7/3--{5}-------------------------------| 
G|----------------------------------------------| 
D|----------------------------------------------| 
A|----------------------------------------------| 
E|----------------------------------------------| 
 
e|----------------------------------------------| 
B|-7-10--7/3--5----{5}--------------------------| 
G|----------------------------------------------| 
D|----------------------------------------------| 
A|----------------------------------------------| 
E|----------------------------------------------| 
 
e|----------------------------------------------| 
B|-7-10--7/3--7----{7}--------------------------| 
G|----------------------------------------------| 
D|----------------------------------------------| 
A|----------------------------------------------| 
E|----------------------------------------------| 
 
e|----------------------------------------------| 
B|-7-10--7/3------------------------------------| 
G|----------------------------------------------| 
D|------------10/7-7/6-6/4-4--------------------| 
A|----------------------------------------------| 
E|----------------------------------------------| 
 
e|----------------------------------------------| 
B|-7-10--7/3------------------------------------| 
G|-----------*10--------------------------------| 
D|--------------------12-------11-------9-------| 
A|--------------10-10----10-10----10-10---10-10-| 
E|----------------------------------------------| x1 
 
*end slide 
 
:Outro: 
 
Guitar 1 
e|----------------------------------------------| 
B|-8888-10-10--11111111-14-14-------------------| 
G|-xxxx-x--x----x-x-x-x--x--x-------------------| 
D|-5555-7--7----8-8-8-8-11-11-------------------| 
A|----------------------------------------------| 
E|----------------------------------------------| x2 
 
Guitar 1 (Build up speed, obviously) 
e|----------------------------------------------| 
B|-8888-10101010-11111111-14141414--------------| 
G|-xxxx--x-x-x-x--x-x-x-x--x-x-x-x--------------| 
D|-5555--7-7-7-7--8-8-8-8-11111111--------------| 
A|----------------------------------------------| 
E|----------------------------------------------| 
 
Guitar 2 
e|----------------------------------------------| 
B|-6666-7777-8888-10101010----------------------| 
G|-xxxx-xxxx-xxxx--x-x-x-x----------------------| 
D|-3333-4444-5555--7-7-7-7----------------------| 
A|----------------------------------------------| 
E|----------------------------------------------| x16 
 
Guitar 1 
e|----------------------------------------------| 
B|----------------------------------------------| 
G|----------------------------------------------| 
D|----------------------------------------------| 
A|---4-----4-----4---4---4----------------------| 
E|-----3-3---3-3---3---3---3-3------------------| 
 
Guitar 2 
e|---10----10----10--10--10---------------------| 
B|------8-----8----8---8---8--------------------| 
G|----------------------------------------------| 
D|----------------------------------------------| 
A|----------------------------------------------| 
E|----------------------------------------------| x2 
 
Guitar 1  
e|----------------------------------------------| 
B|-14-15--15-14--14-15--------------------------| 
G|---------------------11-12--------------------| 
D|---------------------------11-10--------------| 
A|----------------------------------------------| 
E|----------------------------------------------| 
 
Guitar 2 
e|-16-17--17------------------------------------| 
B|-----------18--17-17-17-18--------------------| 
G|--------------------------18-19---------------| 
D|----------------------------------------------| 
A|--------------------------------20------------| 
E|-----------------------------------19---------| x2

TOP cifras de Queens Of The Stone Age

  1. If I Had a Tail
  2. No One Knows Acoustic
  3. Like A Drug
  4. Tangled Up In Plaid
  5. Make It Wit Chu
  6. Mexicola
  7. The Vampyre Of Time And Memory
  8. I Sat By The Ocean
  9. 18 Ad
  10. Little Sister

Pela Web