Cifras Web
Quiet Riot

Metal Healt

Quiet Riot

9 acessos

Lead Guitar

(FILL #1)


E||--20--------------------------|--------------------------|
B||------17~---20----------------|--------------------------|
G||----------------17~---19------|--------------------------|
D||--------------------------17~-|----19--------------------|
A||------------------------------|--------17~---------------|
E||------------------------------|--------------18b---18b---|


(FILL #2)


--------------------|--20--------15---------10---|------------------------|
--------------------|-------17~-------13~--------|--8~--10----------------|
--------------------|----------------------------|-----------7~---5b--5b--|
--------------------|----------------------------|------------------------|
--------------------|----------------------------|------------------------|
--15~---------------|----------------------------|------------------------|


(GUITAR SOLO)


-------------------|--5----5----5--------|-----7-------------------|
-------------------|--8b---8b---8~-------|--7----7-10--10~---------|
-------------------|---------------------|-------------------------|
--7~---------------|---------------------|-------------------------|
-------------------|---------------------|-------------------------|
-------------------|---------------------|-------------------------|



----------------------------------------------|---------------------|
--7h10h7h10h7h10h7h10h7h10h7h10h7h10h7h10-----|---------------------|
----------------------------------------------|--7b---9b---7~-------|
----------------------------------------------|---------------------|
----------------------------------------------|---------------------|
----------------------------------------------|---------------------|



-----------------------|---------------------------------------------------|
-----------------------|--13b-13h10h13h10h13h10h13h10h13h10h13h10-15-17----|
--7b---6b--------------|---------------------------------------------------|
----------7----7/9~----|---------------------------------------------------|
-----------------------|---------------------------------------------------|
-----------------------|---------------------------------------------------|



--10-------------------------|
------13h10-13~-------15~----|
-----------------------------|
-----------------------------|
-----------------------------|
-----------------------------|



---12-12-12-12-12-12-15-15-15-15-17-17-17-17-15-15-15-15-17-17-17-17-18-18-18-18
--------------------------------------------------------------------------------
--------------------------------------------------------------------------------
--------------------------------------------------------------------------------
--------------------------------------------------------------------------------
--------------------------------------------------------------------------------



---18-18-18-19-19-19-19-19-19-19-19-------------|
------------------------------------------------|
------------------------------------------------|
------------------------------------------------|
------------------------------------------------|
------------------------------------------------|


--19-------------------------------|------------------------------||
--------17----------17-------------|------------------------------||
--------------15----------15-------|--16----------------0/--------||
--------------------------------13-|--------14----------0/---0----||
-----------------------------------|--------------13---------0----||
-----------------------------------|------------------------------||

TOP cifras de Quiet Riot

  1. Thunderbird
  2. Stay With Me Tonight
  3. Winners Take All
  4. Afterglow
  5. Bang Your Head
  6. Battle Axe
  7. Come On Feel The Noise
  8. Metal Health Intro
  9. The Wild And The Young
  10. Cum On Feel The Noize

Pela Web